» » »

Stealin Tabs (ver.1)

Artists:  A B C D E F G H I J K L M N O P Q R S T U V W X Y Z # 

Stealin Tabs (ver.1)

Uriah Heep
Rating:
0/5 (0 votes)

Tabs too difficult? Try these video lessons and learn fast.
                STEALIN'  (Hensley)

Bass guitar intro in D, 
organ plays: |Dm-D - - -|Dm-D - - -|C - G -|D - - -| <-played twice

verse:
D
Take me across the water
          C/D        G/D     D
'Cause I need some place to hide
   D
I done the rancher's daughter
       C/D      G/D       D
And I sure did hurt his pride


verse:
D
Well, there's a

Hundred miles of desert
         C/D      G/D      D 
Lies between his hide and mine
          D
I don't need no food

And no water, Lord
          C/D    G/D     D-D7
'Cos I'm running out of time


bridge:
G                   F
Fightin', killin', wine and women
       F(maj7)
Gonna put me to my grave
 G                F
Runnin', hidin', losin', cryin'
 F(maj)                      D
Nothing left to save but my life

 guitar: |D - - -|D - - -|C - G -|D - - -| <-played twice


verse:
D
Stood on a ridge

And shunned religion
  C           G         D
Thinking the world was mine
   D
I made my break and a big mistake
  C         
Stealin', when I
  G             D
Should've been buyin'


bridge:
All that fightin', killin'
Wine and those women
Gonna put me to an early grave
Runnin', hidin', losin', cryin'
Nothing left to save but my life, life...

Guitar solo:
   D                           C                 G             D
E|----------------------------------------------------------------|
B|-------15-------15----15-17-17b19-17b19-17b19-17b19-17p15----15-|
G|-(/16)----(/16)----16-------------------------------------16----|
D|----------------------------------------------------------------|  
A|----------------------------------------------------------------| 
E|----------------------------------------------------------------|

   D                                 
E|----------17b19-17b19-17b19-17b19----------17b19-17b19-17b19-17b19-|
B|----15-------------------------------15----------------------------|
G|-16----16-------------------------16----16-------------------------|
D|-------------------------------------------------------------------|
A|-------------------------------------------------------------------| 
E|-------------------------------------------------------------------|

             C                G              D
E|----------------------------------------------|
B|----15-17-17b19-17b19-17b19-17b20-17p15----15-|
G|-16-------------------------------------16----|
D|----------------------------------------------|  
A|----------------------------------------------| 
E|----------------------------------------------|

   Dbl lead guitar this line below: 
   guitar #1:
   D                            C                G                 D
E|-14----------14-14----------14--------------------------------------|
B|----15----15-------15----15-----------------------------------------|
G|-------14-------------14--------16b17-16b17-16b17-16b17r16-14-16-14-|
D|--------------------------------------------------------------------|
A|--------------------------------------------------------------------| 
E|--------------------------------------------------------------------|
 | guitar #2:                                                         |
E|-17-14----14-17-17-14----14-17--------------------------------------|
B|-------15-------------15--------17b19-17b19-17b19-17b19r17-15-17-15-|
G|--------------------------------------------------------------------|
D|--------------------------------------------------------------------|
A|--------------------------------------------------------------------| 
E|--------------------------------------------------------------------|

   D
E|----------------------------10-10-10----------10-10-10-14-14-14-17--|
B|-------------------10-10-10----------10-10-10-----------------------|
G|----------11-11-11--------------------------------------------------|
D|-12-12-12-----------------------------------------------------------|
A|--------------------------------------------------------------------| 
E|--------------------------------------------------------------------|


E|-15b17-15b17-15b17(r)---------|
B|----------------------15-15---|
G|------------------------------|
D|------------------------------|  
A|------------------------------| 
E|------------------------------|

verse:
So I stood on a ridge
And shunned religion
Thinking the world was mine
I made my break and a big mistake
Stealin', when I
Should've been buyin'
I was stealin'
When I should've been buyin'
I was stealin'
When I should've been buyin'
Stealin', when I
Should've been buyin' ..
I was stealin' ...
            
Tabs too difficult? Try these video lessons and learn fast.




comments powered by Disqus
↑ Back to top | Tablatures and chords are parodies/interpretations of the original songs. You may use it for private study, scholarship, research or language learning purposes only