» » »

Uriah Heep, Lady In Black Bass tabs (ver.1)

Artists:  A B C D E F G H I J K L M N O P Q R S T U V W X Y Z # 

Lady In Black Bass tabs (ver.1)

Uriah Heep Tabs
 Rating:
4/5 (4 votes)
Lady In Black lessons Tabs too difficult? Try these video lessons and learn fast
1
                Uriah Heep - Lady in Black
(EADG; 4/4)



|-2--|---2-|-2---|-2--|------------|
|----|-5---|---5-|----|-------012--|
|----|-----|-----|----|-----34-----|
|----|-----|-----|----|----------3-|
  1    1 3   1 3   1    1 2 3e+e4e 

|--------(3x)|----------|----------|------------|----------|----------|----------|
|*----------*|----------|----------|*----------*|----------|----------|----------|
|*----------*|-------7--|----------|*----------*|-------7--|-------25-|----------|
|--5-5-5-53--|-5-5-5--5-|-3-3-3-33-|--5-5-5-53--|-5-5-5--5-|-3-3-3----|-5-5-5-53-|
   1 2 3 4e    1 2 3 4+   1 2 3 4+    1 2 3 4e    1 2 3 4+   1 2 3 4+   1 2 3 4e

|-----------|---------|---------|----------|
|-------2---|---------|---------|----------|
|-----------|---25----|---------|----------|
|-5-5-5--35-|-3---5-5-|-5-5-3-3-|-5-5-5-53-|
  1 2 3 4e+   1 2+3 4             1 2 3 4e

|----------|----------|----------|------------|----------|----------|----------|
|----------|----------|----------|*----------*|----------|----------|----------|
|----------|--------7-|-------25-|*----------*|-------7--|-------25-|----------|
|-5-5-5-53-|-5-5-5-5--|-3-3-3----|--5-5-5-53--|-5-5-5--5-|-3-3-3----|-5-5-5-53-|
  1 2 3 4e   1 2 3 4+   1 2 3 4+    1 2 3 4e    1 2 3 4+   1 2 3 4+   1 2 3 4e

|-----------|---------|----------|------------|
|-------2---|---------|----2-----|-------012--|
|-----------|---------|-------25-|-----34-----|
|-5-5-5--35-|-3-3-5-5-|-5-5-3----|-5-5------3-|
  1 2 3 4e+   1 2 3 4   1 2+3 4+   1 2 3e+e4e

|----------|---------|----------|------------|----------|----------|----------|
|----------|---------|----------|*----------*|-------2--|----------|----------|
|----------|---------|-------25-|*----------*|----------|-------25-|----------|
|-5-5-5-53-|-5-5-5-5-|-3-3-3----|--5-5-5-53--|-5-5-5--5-|-3-3-3----|-5-5-5-53-|
  1 2 3 4e   1 2 3 4   1 2 3 4+    1 2 3 4e    1 2 3 4+   1 2 3 4+   1 2 3 4e

|---------|---------|---------|------------|
|---------|---------|----2----|-------012--|
|---------|---25----|---------|-----34-----|
|-5-5-5-5-|-3---5-5-|-5-5-3-3-|-5-5------3-|
  1 2 3 4   1 2+3 4   1 2+3 4   1 2 3e+e4e

|----------|----------|----------|----------|
|----------|----------|----------|----------|
|----------|-------25-|-------25-|----------|  repeat 3x
|-5-5-5-53-|-5-5-5----|-3-3-3----|-5-5-5-53-|
  1 2 3 4e   1 2 3 4+   1 2 3 4+    1 2 3 4e

|-----------|---------|----------|------------|
|-------2---|---------|----2-----|-------012--|
|-----------|---25----|-------25-|-----34-----|  repeat 2x
|-5-5-5--35-|-3---5-5-|-5-5-3----|-5-5------3-|
  1 2 3 4e+   1 2+3 4   1 2+3 4+   1 2 3e+e4e

|-----------|---------|----------|------------|
|-------2---|---------|----------|-------012--|
|-----------|---25----|-------25-|-----34-----|
|-5-5-5--35-|-3---5-5-|-5-5-3----|-5-5------3-|
  1 2 3 4e+   1 2+3 4   1 2 3 4+   1 2 3e+e4e

|-----------|---------|---------|------------|
|-------2---|---------|----2----|-------012--|
|-----------|---------|---------|-----34-----|
|-5-5-5--35-|-3-3-5-5-|-5-5-3-3-|-5-5------3-|
  1 2 3 4e+   1 2 3 4   1 2+3 4   1 2 3e+e4e

|----------|---------|---------|------------|
|----------|---------|---------|-------012--|
|----------|---25----|---25----|-----34-----|
|-5-5-5-55-|-3---5-5-|-5---3-3-|-5-5------3-|
  1 2 3 4+   1 2+3 4   1 2+3 4   1 2 3e+e4e

|-----------|---------|----------|------------|
|-------2---|---------|----------|-------012--|
|-----------|---------|-------25-|-----34-----|
|-5-5-5--35-|-3-3-5-5-|-5-5-3----|-5-5------3-|
  1 2 3 4e+   1 2 3 4   1 2 3 4+   1 2 3e+e4e

|-----------|---------|---------|------------|
|-------2---|---------|---------|-------012--|
|-----------|---25----|---25----|-----34-----|  fade out (3x)
|-5-5-5--35-|-3---5-5-|-5---3-3-|-5-5------3-|
  1 2 3 4e+   1 2+3 4   1 2+3 4   1 2 3e+e4e
            
Submit corrections

comments powered by Disqus
↑ Back to top | Uriah Heep Bass for Lady In Black. Lyrics for acoustic guitar and electric guitar. 1 Tablatures and chords are parodies/interpretations of the original songs. You may use it for private study, scholarship, research or language learning purposes only