» » »

Jump Right In Bass tabs (ver.1)

Artists:  A B C D E F G H I J K L M N O P Q R S T U V W X Y Z # 

Jump Right In Bass tabs (ver.1)

Urge
Rating:
0/5 (0 votes)

Hard to play? Try these video lessons and learn fast.
                INTRO/VERSE:
G------------------------------------
D------------------------------------
A-5-5-5-5-3-3-3-3/10-10-10-10\5-5-5-5>2nd TIME IN BEGGINING THE 10 IS 8
E------------------------------------

 "in the bed..."
G-----------
D-----------
A-1-1-1-1-1-
E-----------

"even though..."
G-----------
D-----------
A-5--3------
E------3--3-
 

"just...jump right..."
G-------------
D-------------
A-1-1-1-1-1-1-
E-------------

CHORUS (NEEDS FIXING):
G-3-1------1/5~-5\1-1-1-1--1-2-
D-----3------------------------
A-------1~---------------------
E------------------------------

BASS SOLO:
INTRO/VERSE

I KNOW THIS NEEDS CORRECTING...
            
Hard to play? Try these video lessons and learn fast. | Correct




comments powered by Disqus
↑ Back to top | Tablatures and chords are parodies/interpretations of the original songs. You may use it for private study, scholarship, research or language learning purposes only