» » »

Urge, Jump Right In Chords (ver.1)

Artists:  A B C D E F G H I J K L M N O P Q R S T U V W X Y Z # 

Jump Right In Chords (ver.1)

Urge Tabs
 Rating:
4/5 (4 votes)
Jump Right In lessons Tabs too difficult? Try these video lessons and learn fast
                
	This here is only my version of the song and may
not be extremely accurate but as close as i could get, only 
hearing the songs a couple of times. Its just regular tuning(EADGBe)and
nothing out of the ordinary

here goes...

Verse: light distortion
e------3--x--3-------------6-x-6------------5-x-5----
B------3--x--3-------------6-x-6------------6-x-6----
G------3--x--3-------------7-x-7------------5-x-5----
D
A
E
...This repeats a couple and times and goes straight to the chorus

       Bb	    F		  G#	        C
e----1--1----------1--1---------4--4-----x-x-3--3----3----------
B----3--3----------1--1---------4--4-----x-x-5--5----5----------
G----3--3----------2--2---------5--5-----x-x-5--5----5----------
D----3--3----------3--3---------6--6-----x-x-5--5----5----------
A----1--1----------3--3---------6--6-----x-x-3--3----3----------
E----1--1----------1--1---------4--4-----xx--3--3----3----------

	This is played with good distortion and somewhat slowly like a 2/4 beat
on the 1st and 3rd, i think.

Heres the riff that repeats during the chorus

e---------------------------------------------------
B---------------------------------------------------
G--3--3------5-----2------0-------------------------
D-------------------------------3--------5----------
A---------------------------------------------------
E---------------------------------------------------


e---------------------------------------------------
B--1--1-------3------0------------------------------
G--------------------------3----------1--------3----
D---------------------------------------------------
A---------------------------------------------------
E---------------------------------------------------

	
	This is about all i know of the song, no words
either, oh well.

	Steve H
            
Submit corrections

comments powered by Disqus
↑ Back to top | Urge Chords for Jump Right In. Lyrics for acoustic guitar and electric guitar. Tablatures and chords are parodies/interpretations of the original songs. You may use it for private study, scholarship, research or language learning purposes only