» » »

Unwritten Law, Up All Night Tabs (ver.3)

Artists:  A B C D E F G H I J K L M N O P Q R S T U V W X Y Z # 

Up All Night Tabs (ver.3)

Unwritten Law Tabs
Rating:
0/5 (0 votes)
Up All Night lessons Tabs too difficult? Try these video lessons and learn fast
                Tuning: normal 

great song of the album elva

intro (3 times)
e|--------------------------|
b|--------------------------|
g|--------------------------|
d|--6--6--6/9---------------|
a|--4--4--4/7----4--4--4/7--|
E|---------------2--2--2/5--|
on the 4th time play 
e|----------------------|
b|----------------------|
g|----------------------|
d|------------9--8--5---|
a|--6-7-6-7-6-7--6--3---|
E|--4-5-4-5-4-----------|

Verse guitar 1 (4 times)upstrokes
e|--4--4--4--4--5--5--7--4--|
b|--5--5--5--4--5--5--7--4--|
g|--6--6--6--6--6--6--8--5--|
d|--6--6--6--6--7--7--9--6--|
a|--4--4--4--4--7--7--9--6--|
E|--4--4--4--4--5--5--7--4--|

verse guitar 2 (4 times)
e|------------------------|
b|------------------------|
g|------------------------|
d|--6-6-------------------|
a|--4-4----7-7--9-9--6-6--|
E|---------5-5--7-7--4-4--|
pm  * *    * *  * *  * *

pre chorus
e|-----------|
b|-----------|
g|-----------|
d|-----------|
a|--4-4-6-7--|
E|--2-2-4-5--|

chorus (2 times)
e|--------------------|
b|--------------------|
g|--------------------|
d|--9----6----2----4--|
a|--7----4----0----2--|
E|--------------------|

pre verse/post chorus 
e|--4--4--4--4--5--5--7--4--|--4--4--4--4-------------|
b|--5--5--5--4--5--5--7--4--|--5--5--5--4-------------|
g|--6--6--6--6--6--6--8--5--|--6--6--6--6-------------|
d|--6--6--6--6--7--7--9--6--|--6--6--6--6-------------|
a|--4--4--4--4--7--7--9--6--|--4--4--4--4--4-4-4/6-7--|
E|--4--4--4--4--5--5--7--4--|--4--4--4--4--2-2-2/4-5--|


next verse is the same as last except gt 1 comes in later and only does it twice

pre chorus
e|-------------------|
b|-------------------|
g|-------------------|
d|-------------------|
a|--4-4-6-6-7-7-7-7--|
E|--2-2-4-4-5-5-5-5--|

chorus (2 times)
e|--------------------|
b|--------------------|
g|--------------------|
d|--9----6----2----4--|
a|--7----4----0----2--|
E|--------------------|

then do intro 3 times then
e|---------------------------|
b|---------------------------|
g|---------------------------|
d|--------------9---8--5~----|
a|--6-7-6-7-6-2-7---6--3~----|
E|--4-5-4-5-4-0--------------|

interlude times 2 its not right but sounds allright
e|--------------------4---|------------7--------|
b|--------5--------5----5-|------5--------9-----|
g|-----------6-----6------|---------6--------8--|
d|-----6------------------|---6-----------------|
a|--4---------------------|4--------------------|
E|------------------------|---------------------|


then do verse 4 times then pre chorus then chorus 2 times then instead of chorus chords change to
e|--------------------|
b|--------------------|
g|--------------------|
d|--6----9----2----4--|2 times
a|--4----7----0----2--|
E|--------------------|

then finish with 3 of these
e|--------------------------|
b|--------------------------|
g|--------------------------|
d|--6--6--6/9---------------|
a|--4--4--4/7----4--4--4/7--|
E|---------------2--2--2/5--|
on the 4th time play 
e|----------------------|
b|----------------------|
g|----------------------|
d|----------------------|
a|--6-7-6-7-6-2-4-5-5--5|
E|--4-5-4-5-4-0-2-3-3--3|

done
            
Submit corrections

comments powered by Disqus
↑ Back to top | Unwritten Law Tabs for Up All Night. Lyrics for acoustic guitar and electric guitar. Tablatures and chords are parodies/interpretations of the original songs. You may use it for private study, scholarship, research or language learning purposes only