>
 >
Up All Night 1

Up All Night 1 Guitar Tabs

Unwritten Law - Up All Night 1 chords, tabs, tablatures, lyrics

Guitar lessons | Add/correct | Request | Top 50 tabs Artists:  A B C D E F G H I J K L M N O P Q R S T U V W X Y Z 0-9

Up All Night 1 Guitar Tabs – Unwritten Law

CD, Sheet music, Poster

Do you like Up All Night 1? Share with your friends now
Bass TabsBass Tabs v2TabsTabs v2Tabs v3Tabs v4Tabs v5
Song - Up All Night (Lead Guitar)      . = palm mute
Artist - Unwritten Law                 * = let ring
Album - Elva
Tuning - Normal 
Amp Setting - Max Distortion

Ohhhh, the number of wrong tabs I've seen for this song (I'm talkin to u BRENNA). NE WAY 
THIS IS MY 2ND TAB SO RATE IT 5 STARS JUST LIKE U DONE TO THE LAST ONE! Sorry to all those
rythym gutarists, i will have another for you guys in soon!

INTRO

e-------------------------------------------------
B-------------------------------------------------
G-66-99-------66-99-------66-99-------------9-8-5-
D-66-99-44-77-66-99-44-77-66-99-44-77-67676-9-8-5-
A-44-77-44-77-44-77-44-77-44-77-44-77-67676-7-6-3-
E-------22-55-------22-55-------22-55-45454-------

VERSE

e--------------------------------------------------
B--------------------------------------------------
G-66-----------66-----------66-----------66--------
D-66-77-99-6-6-66-77-99-9-9-66-77-99-6-6-66-44667*-
A-44-77-99-6-6-44-77-99-9-9-44-77-99-6-6-44-44667*-
E----55-77-4-4----55-77-7-7----55-77-4-4----22445*-
  .. .. .. . . .. .. .. . . .. .. .. . . ..

ChoRus

e-------------------------------------
B-------------------------------------
G-99999999-66666666----------44444444-
D-99999999-66666666-77777777-44444444-
A-77777777-44444444-77777777-22222222-
E-------------------55555555----------

After ChoRus Bit

e-------------------
B-------------------
G-66----------------
D-66-77-99-66-44667-
A-44-77-99-66-44667-
E----55-77-44-22445-
  .. .. .. ..

BrIdgE

e---------------------------------------
B---5---9---5--9-7----5---9---5---------
G--6-6-9-9-6-6----9--6-6-9-9-6-6--------
D-6---9---7---9-----6---9---7----99-66--
A--------------------------------99-66--
E--------------------------------77-44--

PoST cHoruS

e-------------------------------------
B-------------------------------------
G-66666666-99999999-------------------
D-66666666-99999999-44444444-77777777-
A-44444444-77777777-44444444-77777777-
E-------------------22222222-55555555-

OutrO

e--------
B--------
G-66666--
D-66666--
A-44444--
E--------

Song Structure

Intro x1
Verse x1
Chorus x2
After Chorus Bit x1
Verse x1
Chorus x2 
Intro x1
Bridge x1
Chorus x2
Post Chorus x2
Intro x1
Outro x1

Lyrics

Can we talk about automatic satisfaction 
Sittin' back relaxin' floored 
What's wrong with kickin it 
When you're bored and lit 
Lets smoke some cigarettes 
And catch up on the back porch 
Fire up another roach 
We don't need a rest this is just a test 
Cuz we're alright, we're up all night 
To see the sun come up again now 
Just one more time no reason why 
To see the sun come up again. 
The more we try to change 
The more we stay the same 
We're caught up in the game and now 
Just like empty picture frames 
So now were to blame 
Said we were gettin down, on genesee and fountain 
Smelled another mountain now 
If you aint gettin down, you'll come around 
And were alright, we're up all night 
To see the sun come up again now 
Just one more time, no reason why 
To see the sun come up again. 
So lets smoke some cigarettes 
And catch up on the back porch 
Fire up another roach 
We don't need a rest, it's just a test 
And as the world spins we'll watch it with a grin 
And look in as the day begins 
Well now it's on again, it's dawn again. Yeah! Yeah! 
And we're alright 
We're up all night 
To see the sun come up again now 
Just one more time, no reason why 
To see the sun come up again 
Yeah we're alright, yeah we're alright 
Yeah we're alright, up all night 
Yeah we're alright, yeah we're alright 
To see the sun come up again now!





Comments


Popular Unwritten Law tabs & chords
Genocide Bass Tabs
Save Me 1 Bass Tabs
Cailin Tabs
Cailin 1 Tabs
Cailin 4 Tabs
Denied Tabs
Harmonic 2 Tabs
How You Feel Tabs
Save Me Ukulele
Sound Siren Ukulele


Song lyrics



↑ Back to top | Tablatures and chords are parodies/interpretations of the original songs. You may use it for private study, scholarship, research or language learning purposes only
© 2014 AZChords.com Contact us | Privacy policy | DMCA | Add/correct tabs | Request tabs | Top 50 tabs