>
 >
Mean Girl 1

Mean Girl 1 Guitar Tabs

Unwritten Law - Mean Girl 1 chords, tabs, tablatures, lyrics

Guitar lessons | Add/correct | Request | Top 50 tabs Artists:  A B C D E F G H I J K L M N O P Q R S T U V W X Y Z 0-9

Mean Girl 1 Guitar Tabs – Unwritten Law

CD, Sheet music, Poster

Do you like Mean Girl 1? Share with your friends now
Bass TabsTabsTabs v2

I've been meaning to do this song for ages, now I've finally
done it. It's a sweet song and I think I got it all right.
There is an Eb5 in the Chorus that doesn't sound like it's
meant to be there, but trust me it is. If you listen carefully
you'll hear it. Remember, Drop D tuning. Enjoi!



Drop D tuning:
(low to high) D-A-D-G-B-E

 Intro: (slight dist.)

    Bb                      A
e|---------------------------------------------------
B|-----------3-----------------------2---------------
G|--------3--------3--------------2--------2---------
D|-----3--------------3--------2--------------2------
A|--1--------------------1--0--------------------0---
D|---------------------------------------------------
             I'm  in       love              with

    Dm
 ------------1--------------3-----------1------------
 ---------3--------3-----------3-----------3---------
 ------2--------------2-----------2-----------2------
 ---0--------------------0-----------0-----------0---
 ----------------------------------------------------
 ----------------------------------------------------
   mean     girl

    Bb                      A [strummed softly]
 ----------------------------------------------|
 ------------3--------------2------------------|
 ---------3--------3--------2------------------|
 ------3--------------3-----2------------------|
 ---1--------------------1--0------------------|
 ----------------------------------------------|
             I'm  in       love


 Bridge: (dist.)

    F5                            D5
 |------------------------------------------------------
 |------------------------------------------------------
 |------------------------------------------------------
 |--3-----------------------3---p(0)--------------------
 |--3-----------------------3---p(0)--------------------
 |--3-----0--3--0--3--5-----3---p(0)--------------------
                           ***!

    F5    D5          F5                            D5
 -------------------------------------------------------
 -------------------------------------------------------
 -------------------------------------------------------
 ---3---p(0)----------3-----------------------3---p(0)--
 ---3---p(0)----------3-----------------------3---p(0)--
 ---3---p(0)----------3-----0--3--0--3--5-----3---p(0)--

             F5    D5          F5
 -------------------------------------------------------|
 -------------------------------------------------------|
 -------------------------------------------------------|
 -------------3---p(0)----------3-----------------------|
 -------------3---p(0)----------3-----------------------|
 -------------3---p(0)----------3-----0--3--0--3--5-----|


 1st Verse: (dist.)

    F5       D5
 |---------------------------------------------------
 |---------------------------------------------------
 |---------------------------------------------------
 |--3-----3--0---------------------------------------
 |--3-----3--0---------------------------------------
 |--3-----3--0---------------------------------------
            Bum  luck   will  you   ever   know

    F5    D5                   F5
 ----------------------------------------------------|
 ----------------------------------------------------|
 ----------------------------------------------------|
 ---3---p(0)-------------------3---------------------|
 ---3---p(0)-------------------3---------------------|
 ---3---p(0)-------------------3-----0--3--0--3--5---|
      (I'm not in love with you)

A nice girl flown around in a pretty girl limbo
(I'm not in love with you)
Not a mean bone in her body, I said
(I'm not in love with you)
I love her like a bullet to the back of the head
(I'm not in love with you)


 Chorus: (dist.)

    Bb                      A
 |---------------------------------------------------
 |--3-----3--3--3--3--3-----2-----2--2--2--2--2------
 |--3-----3--3--3--3--3-----2-----2--2--2--2--2------
 |--3-----3--3--3--3--3-----2-----2--2--2--2--2------
 |--1-----1--1--1--1--1-----0-----0--0--0--0--0------
 |---------------------------------------------------
               I'm in      love              with

    D5                               Eb5
 ----------------------------------------------------
 ----------------------------------------------------
 ----------------------------------------------------
 ----------------------------------------------------
 ---0-----0--0--0--0--0--0--0--0--0--1-----1--1------
 ---0-----0--0--0--0--0--0--0--0--0--1-----1--1------
   mean        girl        I'm in   love with

    Bb                      G5
 ----------------------------------------------------
 ---3-----3--3--3--3--3------------------------------
 ---3-----3--3--3--3--3------------------------------
 ---3-----3--3--3--3--3------------------------------
 ---1-----1--1--1--1--1-----5-----5--5--5--5--5--5---
 ---------------------------5-----5--5--5--5--5--5---
   you         I'm in      love              with

    A5 Bb5 A5 D5             A5 Bb5 A5 D5
 ---------------------------------------------------|
 ---------------------------------------------------|
 ---------------------------------------------------|
 ---------------------------------------------------|
 ---7/(8)\(7)-0-----0--0-----7/(8)\(7)-0-----0--0---|
 ---7/(8)\(7)-0-----0--0-----7/(8)\(7)-0-----0--0---|

    Bb                      A
 |---------------------------------------------------
 |--3-----3--3--3--3--3-----2-----2--2--2--2--2------
 |--3-----3--3--3--3--3-----2-----2--2--2--2--2------
 |--3-----3--3--3--3--3-----2-----2--2--2--2--2------
 |--1-----1--1--1--1--1-----0-----0--0--0--0--0------
 |---------------------------------------------------
               I'm in      love              with

    D5                               Eb5
 ----------------------------------------------------
 ----------------------------------------------------
 ----------------------------------------------------
 ----------------------------------------------------
 ---0-----0--0--0--0--0--0--0--0--0--1-----1--1------
 ---0-----0--0--0--0--0--0--0--0--0--1-----1--1------
   mean        girl        I'm in   love with

    Bb                      G5
 ------------------------------------------------------|
 ---3-----3--3--3--3--3--------------------------------|
 ---3-----3--3--3--3--3--------------------------------|
 ---3-----3--3--3--3--3--------------------------------|
 ---1-----1--1--1--1--1-----5-----5--5--5--5--5--5--5--|
 ---------------------------5-----5--5--5--5--5--5--5--|
   you         I'm in      love

 [play the Bridge again]


 2nd Verse: (dist.) Same as 1st Verse

Lookin' like a school girl dressed to kill
(I'm not in love with you)
A pretty girl dress would make mean girl ill
(I'm not in love with you)
Like Jon Bonham locked to a doctor beat
(I'm not in love with you)
I need a mean girl to knock me off my feet
(I'm not in love with you)

 [play Chorus again]


 Interlude: (dist.)

I just want mean girl to be nasty and fine
You just want mean girl to be nasty and mine

 Riff A- Played with lyrics

    A5    D5 F5 D5 F5 G5        F5    D5 F5 G5
 |---------------------------------------------------
 |---------------------------------------------------
 |---------------------------------------------------
 |---------------------------------------------------
 |--7-----0--3--0--3--5---------3--3--0--3--5--------
 |--7-----0--3--0--3--5---------3--3--0--3--5--------
      PM: ^  ^  ^  ^  ^         ^  ^  ^  ^  ^

    F5          D5 F5 G5        F5    D5 F5 G5
 ---------------------------------------------------|
 ---------------------------------------------------|
 ---------------------------------------------------|
 ---------------------------------------------------|
 ---3-----3--3--0--3--5---------3--3--0--3--5-------|
 ---3-----3--3--0--3--5---------3--3--0--3--5-------|
    ^     ^  ^  ^  ^  ^         ^  ^  ^  ^  ^

 [Riff A, played twice]

    A5    D5 F5 D5 F5 G5        F5    D5 F5 G5
 |---------------------------------------------------
 |---------------------------------------------------
 |---------------------------------------------------
 |---------------------------------------------------
 |--7-----0--3--0--3--5---------3--3--0--3--5--------
 |--7-----0--3--0--3--5---------3--3--0--3--5--------

    F5          D5 F5 G5        F5    D5 F5 G5
 ----------------------------------------------------
 ----------------------------------------------------
 ----------------------------------------------------
 ----------------------------------------------------
 ---3-----3--3--0--3--5---------3--3--0--3--5--------
 ---3-----3--3--0--3--5---------3--3--0--3--5--------

    A5    D5 F5 D5 F5 G5        F5    D5 F5 G5
 ----------------------------------------------------
 ----------------------------------------------------
 ----------------------------------------------------
 ----------------------------------------------------
 ---7-----0--3--0--3--5---------3--3--0--3--5--------
 ---7-----0--3--0--3--5---------3--3--0--3--5--------

    F5          D5 F5 G5
 --------------------------------|
 --------------------------------|
 --------------------------------|
 --------------------------------|
 ---3-----3--3--0--3--5----------|
 ---3-----3--3--0--3--5----------|


 [play Chorus again, end with D5, play Chorus one more time,
  end on G5]


_______________________________________________________________





Comments


Popular Unwritten Law tabs & chords
Falling Down Bass Tabs
Genocide Bass Tabs
Lost Control 1 Bass Tabs
Save Me 1 Bass Tabs
Differences Tabs
Elva 2 Tabs
Sound Siren 1 Tabs
Sound Sirens Tabs
Walrus Intro Tabs
Shallow Ukulele


Song lyrics



↑ Back to top | Tablatures and chords are parodies/interpretations of the original songs. You may use it for private study, scholarship, research or language learning purposes only
© 2014 AZChords.com Contact us | Privacy policy | DMCA | Add/correct tabs | Request tabs | Top 50 tabs