» » »

Unwritten Law, Mean Girl Bass tabs (ver.1)

Artists:  A B C D E F G H I J K L M N O P Q R S T U V W X Y Z # 

Mean Girl Bass tabs (ver.1)

Unwritten Law Tabs
 Rating:
4/5 (4 votes)
Mean Girl lessons Tabs too difficult? Try these video lessons and learn fast
1
                G|----------|
D|----------|
A|----------|
D|-3-0-3-0-5|

G|------------------------------------------|
D|------------------------------------------|
A|-----------------------------------------0|
D|-3-0000000000000000-3-00000000-3-0-3-0-5--|

G|-----------------------------|-----------|
D|-----------------------------|-----------|
A|-----------------------------|----------0|
D|-33/12-12-0000-33/12-12-0000-|-3-0-3-0-5-|

G|-----------------------------------------|
D|-----------------------------------------|
A|----------------------------------------0|
D|-3-000000000000000-3-00000000-3-0-3-0-5--|

chorus
G|--------------------|
D|--------------------|
A|-1111-0000----------|
D|----------0000-1111-|

G|-------------------------|
D|-------------------------|
A|-1111-0000-0h1----0h1----|
D|--------------0000---0000|

G|-------------------|
D|-------------------|
A|-1111-0000---------|
D|----------0000-1111|

G|---------------------|
D|---------------------|
A|-1111-0000-----------|
D|----------0000-1111--|


verse
G|-------------|
D|-------------|
A|------------0|
D|-3-0-3-0-5---|

G|-----------------------------------------|
D|-----------------------------------------|
A|----------------------------------------0|
D|-3-000000000000000-3-00000000-3-0-3-0-5--|

G|-----------------------------------------|
D|-----------------------------------------|
A|----------------------------------------0|
D|-3-000000000000000-3-00000000-3-0-3-0-5--|

G|-----------------------------|------------|
D|-----------------------------|------------|
A|-----------------------------|-----------0|
D|-33/12-12-0000-33/12-12-0000-|-3-0-3-0-5--|

G|-----------------------------------------|
D|-----------------------------------------|
A|----------------------------------------0|
D|-3-000000000000000-3-00000000-3-0-3-0-5--|

chorus
G|--------------------|
D|--------------------|
A|-1111-0000----------|
D|----------0000-1111-|

G|-------------------------|
D|-------------------------|
A|-1111-0000-0h1----0h1----|
D|--------------0000---0000|

G|--------------------|
D|--------------------|
A|-1111-0000----------|
D|----------0000-1111-|

G|--------------------|
D|--------------------|
A|-1111-0000----------|
D|----------0000-1111-|

solo (rep as many times as possible)
G|--------------------------------------------|
D|--------------------------------------------|
A|--------------------------------------------|
D|-30-30-30-03-03-03-003-30-30-30-03-03-03-003|

chorus
G|--------------------|
D|--------------------|
A|-1111-0000----------|
D|----------0000-1111-|

G|-------------------------|
D|-------------------------|
A|-1111-0000-0h1----0h1----|
D|--------------0000---0000|

G|--------------------|
D|--------------------|
A|-1111-0000----------|
D|----------0000-1111-|

G|--------------------|
D|--------------------|
A|-1111-0000----------|
D|--------------------|

hard song to tab out...this was the bisic idea of it and all that good stuff
            
Submit corrections

comments powered by Disqus
↑ Back to top | Unwritten Law Bass for Mean Girl. Lyrics for acoustic guitar and electric guitar. 1 Tablatures and chords are parodies/interpretations of the original songs. You may use it for private study, scholarship, research or language learning purposes only