» » »

Lonesome Bass tabs (ver.2)

Artists:  A B C D E F G H I J K L M N O P Q R S T U V W X Y Z # 

Lonesome Bass tabs (ver.2)

Unwritten Law
Rating:
5/5 (2 votes)

Hard to play? Try these video lessons and learn fast.
                Band: Unwritten Law

m = hand mute. Press the fret with your index finger, and
mute the strings with your other finger/s

>= slide up

< = slide down

                        x5
G:-------------------------|----------------------
D:-------------------------|----------------------
A:----5-7-------------5-7--|----5-7---------------
E:-0-------5-7--5-7-4------|-0------7-5--4-5--4-2-


G:--------------------------------------------
D:--------------------------------------------
A:----5-7-------------5-7-----5-7-------------
E:-0-------5-7--5-7-4------0-------55--44--7--

(Pretty Fast)
G:----------------------------------------
D:----------------------------------------
A:-7-7-7-7-7-7-7-7-11-11-11-11-11-11-9-11-
E:----------------------------------------


G:--------------------------------------------------
D:--------------------------------------------------
A:-12-12-12-12-12-12-10-12-14-14-14-14-14-14-14-14--
E:--------------------------------------------------


G:-------------------------------------------
D:-------------------------------------------
A:-7-7-7-7-11-12-11-9-11-11-11-11-11-11-9-11-
E:-------------------------------------------


G:------------------------------------------------
D:-------------------14---------13----16-14-13-11-
A:-12-12-12-12-12-12------14-14----14-------------
E:------------------------------------------------

Repeat these two lines twice
G:----------------------------------------
D:----------------------------------------
A:-14-14-14-14-13-14-13-5-6-6-6-6-6-6-5-6-
E:----------------------------------------


G:----------------------------------
D:----------------------------------
A:-7-7-7-7-7-7-6-7-9-9-9-9-9-9-9-9--
E:----------------------------------
(End of Fast Bit)

G:-----------------------------------------------
D:----------------------------------------2-2-2--
A:-----------------------------------------------
E:-2--2-2-2--5--5-5-5--0--0-0-0--0--0--0---------


G:-----------------------------------------------
D:-----------------------------------------------
A:-----------------------------------------------
E:-2--2-2-2--5--5-5-5--0--0-0-0--7--7-7--7-7-7---

Repeat these two lines twice
      m m        m m
G:-----------------------
D:-----------------------
A:-----------------------
E:-2--2-2-2---4--4-4-4---

       m m m m m m m m m m m m m m
G:----------------------------------------
D:----------------------------------------
A:----------------------------------------
E:--5--5-5-5-5-5-5-5-5-5-5-5-5-5-5--------


G:-------------------------------
D:-------------------------------
A:-------------------------------
E:-7---5-7-5-7-4-5---4-5-4-5-2-4-


G:-------------------------------
D:-------------------------------
A:-------------------------------
E:-2-4-2-4-2-7---7-5-4-2---------


G:-----------------------------------------------
D:-----------------------------------------------
A:----5-7-------------5-7------5-7---------------
E:-0-------5-7--5-7-4-------0------7-5--4-5--4-2-


G:--------------------------------------------
D:--------------------------------------------
A:----5-7-------------5-7-----5-7-------------
E:-0-------5-7--5-7-4------0-------55--44--7--


(Pretty Fast)
G:----------------------------------------
D:----------------------------------------
A:-7-7-7-7-7-7-7-7-11-11-11-11-11-11-9-11-
E:----------------------------------------


G:--------------------------------------------------
D:--------------------------------------------------
A:-12-12-12-12-12-12-10-12-14-14-14-14-14-14-14-14--
E:--------------------------------------------------


G:-------------------------------------------
D:-------------------------------------------
A:-7-7-7-7-11-12-11-9-11-11-11-11-11-11-9-11-
E:-------------------------------------------


G:------------------------------------------------
D:-------------------14---------------------------
A:-12-12-12-12-12-12------14<---------------------
E:------------------------------------------------


Repeat these two lines twice
G:----------------------------------------
D:----------------------------------------
A:-14-14-14-14-13-14-13-5-6-6-6-6-6-6-5-6-
E:----------------------------------------


G:----------------------------------
D:----------------------------------
A:-7-7-7-7-7-7-6-7-9-9-9-9-9-9-9-9--
E:----------------------------------
(End of Fast Part)


G:-----------------------------------------------
D:----------------------------------------2-2-2--
A:-----------------------------------------------
E:-2--2-2-2--5--5-5-5--0--0-0-0--0--0--0---------


G:-----------------------------------------------
D:-----------------------------------------------
A:-----------------------------------------------
E:-2--2-2-2--5--5-5-5--0--0-0-0--7--7-7--7-7-7---

Repeat these two lines twice
      m m        m m
G:-----------------------
D:-----------------------
A:-----------------------
E:-2--2-2-2---4--4-4-4---

       m m m m m m m m m m m m m m
G:----------------------------------------
D:----------------------------------------
A:----------------------------------------
E:--5--5-5-5-5-5-5-5-5-5-5-5-5-5-5--------


G:---------------------------------------------------------
D:---------------------------------------------------------
A:---------------------------------------------------------
E:-7--5-7-5-7-4-5---4-5-4-5-2-4---2-4-2-4-2-7---7-5-4-2-0--


G:----------------------------------------------------
D:----------------------------------------------------
A:----------------------------------------------------
E:-3--3-3-3--3-3-3--3-3-3--3-3-5--5-5-5--5-5-5--5-5-5-


G:------------------------------------
D:------------------------------------
A:------------------------------------
E:-5-5-7--7-7-7--7-7-10--10-10-10-<-0-


G:-------------------------------------------------
D:-------------------------------------------------
A:-------------------------------------------------
E:-3-3-3--3-3-3--3-3-3--3-3-5--5-5-5--5-5-5--5-5-5-


G:-------------------------------
D:-------------------------------
A:-------------------------------
E:-5-5-7--7-7-7--7-7-10--10-10-10


(Pretty Fast - Bass Solo)
G:----------------------------------------
D:----------------------------------------
A:-7-7-7-7-7-7-7-7-11-11-11-11-11-11-9-11-
E:----------------------------------------


G:--------------------------------------------------
D:--------------------------------------------------
A:-12-12-12-12-12-12-10-12-14-14-14-14-14-14-14-14--
E:--------------------------------------------------


G:-------------------------------------------
D:-------------------------------------------
A:-7-7-7-7-11-12-11-9-11-11-11-11-11-11-9-11-
E:-------------------------------------------


G:------------------------------------------------
D:-------------------14---------13----16-14-13-11-
A:-12-12-12-12-12-12------14-14----14-------------
E:------------------------------------------------


Repeat these two lines twice
G:----------------------------------------
D:----------------------------------------
A:-14-14-14-14-13-14-13-5-6-6-6-6-6-6-5-6-
E:----------------------------------------


G:----------------------------------
D:----------------------------------
A:-7-7-7-7-7-7-6-7-9-9-9-9-9-9-9-9--
E:----------------------------------


G:-----------------------------------------
D:-----------------------------------------
A:-7-7-7-7-7-7-7-7-11-11-11-11-11-11-11-11-
E:-----------------------------------------


G:--------------------------------------------------
D:--------------------------------------------------
A:-12-12-12-12-12-12-12-12-14-14-14-14-14-14-14-14--
E:--------------------------------------------------


G:-----------------------------------------
D:-----------------------------------------
A:-7-7-7-7-7-7-7-7-11-11-11-11-11-11-11-11-
E:-----------------------------------------


G:---------------------------------------
D:---------------------------------------
A:-12-12-12-12-12-12-12-12-14-14--14-14--
E:---------------------------------------
(End of Fast Part)


G:-----------------------------------------------
D:----------------------------------------2-2-2--
A:-----------------------------------------------
E:-2--2-2-2--5--5-5-5--0--0-0-0--0--0--0---------


G:-----------------------------------------------
D:-----------------------------------------------
A:-----------------------------------------------
E:-2--2-2-2--5--5-5-5--0--0-0-0--7--7-7--7-7-7---

Repeat these two lines twice
      m m        m m
G:-----------------------
D:-----------------------
A:-----------------------
E:-2--2-2-2---4--4-4-4---

       m m m m m m m m m m m m m m
G:----------------------------------------
D:----------------------------------------
A:----------------------------------------
E:--5--5-5-5-5-5-5-5-5-5-5-5-5-5-5--------


G:---------------------------------------------------------
D:---------------------------------------------------------
A:---------------------------------------------------------
E:-7---5-7-5-7-4-5---4-5-4-5-2-4---2-4-2-4-2-7---7-5-4-2-0-


G:----------------------------------------------------
D:----------------------------------------------------
A:----------------------------------------------------
E:-3--3-3-3--3-3-3--3-3-3--3-3-5--5-5-5--5-5-5--5-5-5-


G:------------------------------------
D:------------------------------------
A:------------------------------------
E:-5-5-7--7-7-7--7-7-10--10-10-10-<-0-


G:-------------------------------------------------------
D:-------------------------------------------------------
A:-------------------------------------------------------
E:-0--3--3-3-3--3-3-3--3-3-3--3-3-5--5-5-5--5-5-5--5-5-5-


G:-----------------------------
D:-----------------------------
A:-----------------------------
E:-5-5-7--7-7-7--7-7-55-44-7-00


Thats it. It really isn't hard to play. Practice it, and
go through it properly. You must listen to the tempo etc
to get it, i've tried to kind of set the tempo, but
there's only so much you can do in tab.
            
Hard to play? Try these video lessons and learn fast. | Correct




comments powered by Disqus
↑ Back to top | Tablatures and chords are parodies/interpretations of the original songs. You may use it for private study, scholarship, research or language learning purposes only