>
 >
Lonesome

Lonesome Guitar Tabs

Unwritten Law - Lonesome chords, tabs, tablatures, lyrics

Guitar lessons | Add/correct | Request | Top 50 tabs Artists:  A B C D E F G H I J K L M N O P Q R S T U V W X Y Z 0-9

Lonesome Guitar Tabs – Unwritten Law

CD, Sheet music, Poster

Do you like Lonesome? Share with your friends now
Bass TabsTabsTabs v2
Unwritten Law

this is a pretty sick song so i thought i'd tab it... it took a long time but im pretty
sure it's right. standard tuning. (EBGDAE)

-------------------------------------------------------------------------
Guitar 1:

intro 

E|--------------------------|
B|--------------------------|
G|--------------------------|
D|-----0h2-------------0h2--| (x5)
A|---------0h2--------------|
E|--0------------3h5p3------|  

E|--------------------------|
B|--------------------------|
G|--------------------------|
D|-----0h2------------------| (x1)
A|---------2p0--------------|
E|--0------------3h5p3-2h3--|

E|--------------------------|
B|--------------------------|
G|--------------------------|
D|-----0h2-------------0h2--| (x1)
A|---------0h2--------------|
E|--0------------3h5p3------|

E|--------------------------|
B|--------------------------|
G|------------2-2--------4--|
D|-----0h2----2-2---5-5--4--| (x1)
A|---------0--0-0---5-5--2--|
E|--0---------------3-3-----|

verse (guitar comes in after bass)

E|---------------------|
B|--9------8/10-9------|
G|--9----9--------9-9--|
D|--9------------------| (x1)
A|--7------------------|
E|---------------------|

E|-------------------|
B|------9----10---9--|
G|------9-----9---9--|
D|------9-----9---9--| (x3)
A|--7-7---7-7---7----|
E|-------------------|
    ^ ^   ^ ^   ^
*plam-mute the notes with the ^ under them

E|------------------------|
B|------9-9--12-12-12-12--|
G|------9-9---9--9--9--9--|
D|------9-9---9--9--9--9--| (x1)
A|--7-7-------------------|
E|------------------------|
    ^ ^
E|-------------------|
B|------9----10---9--|
G|------9-----9---9--|
D|------9-----9---9--| (x3)
A|--7-7---7-7---7----|
E|-------------------|
    ^ ^   ^ ^   ^
*plam-mute the notes with the ^ under them

E|-------------------|
B|--9-9-9-9-9-9-9-9--|
G|--9-9-9-9-9-9-9-9--|
D|--9-9-9-9-9-9-9-9--| (x1)
A|--7-7-7-7-7-7-7-7--|
E|-------------------|

chorus

E|---------------------------------------------------------|
B|---------------------------------------------------------|
G|----------------2-2--2-2--2------------------------------|
D|--4-4--4-4--4---2-2--2-2--2---2-2--2-2--2---2-2--2-2--2--| (x2)
A|--4-4--4-4--4---0-0--0-0--0---2-2--2-2--2---2-2--2-2--2--|
E|--2-2--2-2--2-----------------0-0--0-0--0---0-0--0-0--0--|

E|-------------------------------------------------------|
B|-------------------------------------------------------|
G|------------------22222222-22222222-22222222-22222222--|
D|--4444-4--6666-6--22222222-22222222-22222222-22222222--| (x1)
A|--4444-4--6666-6--00000000-00000000-00000000-00000000--|
E|--2222-2--4444-4---------------------------------------|
    ^^^^    ^^^^    ^^^^^^^^ ^^^^^^^^ ^^^^^^^^ ^^^^^^^^

E|-----------------------|
B|-----------------------|
G|--4~---2~--------4--4--|
D|--4~---2~---6~---4--4--| (x1)
A|--2~---0~---6~---2--2--|
E|------------4~---------|

post-chorus

E|--------------------------|
B|--------------------------|
G|--------------------------|
D|-----0h2-------------0h2--| (x1)
A|---------0h2--------------|
E|--0------------3h5p3------|

E|--------------------------|
B|--------------------------|
G|--------------------------|
D|-----0h2------------------| (x1)
A|---------2p0--------------|
E|--0------------3h5p3-2h3--|

E|--------------------------|
B|--------------------------|
G|--------------------------|
D|-----0h2-------------0h2--| (x1)
A|---------0h2--------------|
E|--0------------3h5p3------|

E|--------------------------|
B|--------------------------|
G|------------2-2--------4--|
D|-----0h2----2-2---5-5--4--| (x1)
A|---------0--0-0---5-5--2--|
E|--0---------------3-3-----|

verse (guitar comes in after bass)

E|-------------------|
B|------9----10---9--|
G|------9-----9---9--|
D|------9-----9---9--| (x3)
A|--7-7---7-7---7----|
E|-------------------|
    ^ ^   ^ ^   ^

E|------------------------|
B|------9-9--12-12-12-12--|
G|------9-9---9--9--9--9--|
D|------9-9---9--9--9--9--| (x1)
A|--7-7-------------------|
E|------------------------|
    ^ ^

E|-------------------|
B|------9----10---9--|
G|------9-----9---9--|
D|------9-----9---9--| (x3)
A|--7-7---7-7---7----|
E|-------------------|
    ^ ^   ^ ^   ^

E|-------------------|
B|--9-9-9-9-9-9-9-9--|
G|--9-9-9-9-9-9-9-9--|
D|--9-9-9-9-9-9-9-9--| (x1)
A|--7-7-7-7-7-7-7-7--|
E|-------------------|

chorus

E|---------------------------------------------------------|
B|---------------------------------------------------------|
G|----------------2-2--2-2--2------------------------------|
D|--4-4--4-4--4---2-2--2-2--2---2-2--2-2--2---2-2--2-2--2--| (x2)
A|--4-4--4-4--4---0-0--0-0--0---2-2--2-2--2---2-2--2-2--2--|
E|--2-2--2-2--2-----------------0-0--0-0--0---0-0--0-0--0--|

E|-------------------------------------------------------|
B|-------------------------------------------------------|
G|------------------22222222-22222222-22222222-22222222--|
D|--4444-4--6666-6--22222222-22222222-22222222-22222222--| (x1)
A|--4444-4--6666-6--00000000-00000000-00000000-00000000--|
E|--2222-2--4444-4---------------------------------------|
    ^^^^    ^^^^    ^^^^^^^^ ^^^^^^^^ ^^^^^^^^ ^^^^^^^^

E|-----------------------|
B|-----------------------|
G|--4~---2~--------4--4--|
D|--4~---2~---6~---4--4--| (x1)
A|--2~---0~---6~---2--2--|
E|------------4~---------|

then bridge

E|--------------------------|
B|--------------------------|
G|--------------------------|
D|-----0h2------------------| (x1)
A|---------2p0--------------|
E|--0------------3h5p3-2h3--|

E|--------------------------|
B|--------------------------|
G|--------------------------|
D|-----0h2-------------0h2--| (x3)
A|---------0h2--------------|
E|--0------------3h5p3------|

E|--------------------------|
B|--------------------------|
G|--------------------------|
D|-----0h2------------------| (x1)
A|---------2p0--------------|
E|--0------------3h5p3-2h3--|

E|--------------------------|
B|--------------------------|
G|--------------------------|
D|-----0h2-------------0h2--| (x3)
A|---------0h2--------------|
E|--0------------3h5p3------|

E|------|
B|------|
G|------|
D|--2~--| (x1)
A|--2~--|
E|--0~--|

(yes there's more guitar after this buts it's the second guitar)

then a very fast palm-muting verse...

E|------------------------------------------|
B|------------------------------------------|
G|----------------------22222222--44444444--|
D|--22222222--66666666--22222222--44444444--| (x1)
A|--22222222--66666666--00000000--22222222--|
E|--00000000--44444444----------------------|
    ^^^^^^^^  ^^^^^^^^  ^^^^^^^^  ^^^^^^^^

E|-------------------------------------------|
B|-------------------------------------------|
G|----------------------22222222---4-4--4-4--|
D|--22222222--66666666--22222222---4-4--4-4--| (x1)
A|--22222222--66666666--00000000---2-2--2-2--|
E|--00000000--44444444-----------------------|
    ^^^^^^^^  ^^^^^^^^  ^^^^^^^^  

then chorus

E|---------------------------------------------------------|
B|---------------------------------------------------------|
G|----------------2-2--2-2--2------------------------------|
D|--4-4--4-4--4---2-2--2-2--2---2-2--2-2--2---2-2--2-2--2--| (x2)
A|--4-4--4-4--4---0-0--0-0--0---2-2--2-2--2---2-2--2-2--2--|
E|--2-2--2-2--2-----------------0-0--0-0--0---0-0--0-0--0--|

E|-------------------------------------------------------|
B|-------------------------------------------------------|
G|------------------22222222-22222222-22222222-22222222--|
D|--4444-4--6666-6--22222222-22222222-22222222-22222222--| (x1)
A|--4444-4--6666-6--00000000-00000000-00000000-00000000--|
E|--2222-2--4444-4---------------------------------------|
    ^^^^    ^^^^    ^^^^^^^^ ^^^^^^^^ ^^^^^^^^ ^^^^^^^^

E|-----------------------|
B|-----------------------|
G|--4~---2~--------4--4--|
D|--4~---2~---6~---4--4--| (x1)
A|--2~---0~---6~---2--2--|
E|------------4~---------|

post chorus/outro

E|--------------------------|
B|--------------------------|
G|--------------------------|
D|-----0h2-------------0h2--| (x3)
A|---------0h2--------------|
E|--0------------3h5p3------|  

E|--------------------------|
B|--------------------------|
G|--------------------------|
D|-----0h2------------------| (x1)
A|---------2p0--------------|
E|--0------------3h5p3-2h3--|

E|--------------------------|
B|--------------------------|
G|--------------------------|
D|-----0h2-------------0h2--| (x3)
A|---------0h2--------------|
E|--0------------3h5p3------|  

E|---------------------------------|
B|---------------------------------|
G|------------2-2--------4---------|
D|-----0h2----2-2---5-5--4----2-2--| (x1)
A|---------0--0-0---5-5--2----2-2--|
E|--0---------------3-3-------0-0--|

--------------------------------------------------------------------------
Guitar 2 (higher notes)

intro (comes in and gets louder)

E|--6b(7)r-6b(7)r-6b(7)r-6b(7)r-6b(7)r--|
B|--------------------------------------|
G|--------------------------------------|
D|--------------------------------------| (x?)
A|--------------------------------------|
E|--------------------------------------|

E|----------------|
B|----------------|
G|--2-2--------4--|
D|--2-2---5-5--4--| (x1)
A|--0-0---5-5--2--|
E|--------3-3-----|

verse (quiet and hard to hear)

E|--12--7--*7*--|
B|--------------|
G|--------------|
D|--------------| (x1)
A|--------------|
E|--------------|

E|----------------------|
B|----------------------|
G|--99999999-8888-9999--|
D|--xxxxxxxx-xxxx-xxxx--| (x4)
A|--77777777-7777-7777--|
E|----------------------|

chorus

E|--------------------------|
B|--------------------------|
G|--99999999-8888-99-11-11--|
D|--xxxxxxxx-xxxx-xx--x--x--| (x1)
A|--77777777-7777-77--7--7--|
E|--------------------------|

E|----------------------|
B|----------------------|
G|--99999999-8888-9999--|
D|--xxxxxxxx-xxxx-xxxx--| (x1)
A|--77777777-7777-7777--|
E|----------------------|

E|--------------------------|
B|--------------------------|
G|--99999999-8888-99-11-11--|
D|--xxxxxxxx-xxxx-xx--x--x--| (x1)
A|--77777777-7777-77--7--7--|
E|--------------------------|

E|----------------------|
B|----------------------|
G|--99999999-8888-9999--|
D|--xxxxxxxx-xxxx-xxxx--| (x1)
A|--77777777-7777-7777--|
E|----------------------|

E|--------------------------|
B|--------------------------|
G|--99999999-8888-99-11-11--|
D|--xxxxxxxx-xxxx-xx--x--x--| (x1)
A|--77777777-7777-77--7--7--|
E|--------------------------|

rest for a second

E|-----|
B|-----|
G|--9--|
D|--x--| (x1)
A|--7--|
E|-----|

E|-----------------------|
B|-----------------------|
G|--4~---2~--------4--4--|
D|--4~---2~---6~---4--4--| (x1)
A|--2~---0~---6~---2--2--|
E|------------4~---------|

no post-chorus

E|--0-0-0-0-0-0-0-0--12*-12*-12*-12*-12*-12*-12*-12*--|
B|----------------------------------------------------|
G|----------------------------------------------------|
D|----------------------------------------------------| (x?)
A|----------------------------------------------------|
E|----------------------------------------------------|
   ^ ^ ^ ^ ^ ^ ^ ^    ^   ^   ^   ^   ^   ^   ^   ^

then 

E|----------------------|
B|----------------------|
G|--99999999-8888-9999--|
D|--xxxxxxxx-xxxx-xxxx--| (x4)
A|--77777777-7777-7777--|
E|----------------------|

chorus

E|--------------------------|
B|--------------------------|
G|--99999999-8888-99-11-11--|
D|--xxxxxxxx-xxxx-xx--x--x--| (x1)
A|--77777777-7777-77--7--7--|
E|--------------------------|

E|----------------------|
B|----------------------|
G|--99999999-8888-9999--|
D|--xxxxxxxx-xxxx-xxxx--| (x1)
A|--77777777-7777-7777--|
E|----------------------|

E|--------------------------|
B|--------------------------|
G|--99999999-8888-99-11-11--|
D|--xxxxxxxx-xxxx-xx--x--x--| (x1)
A|--77777777-7777-77--7--7--|
E|--------------------------|

E|----------------------|
B|----------------------|
G|--99999999-8888-9999--|
D|--xxxxxxxx-xxxx-xxxx--| (x1)
A|--77777777-7777-7777--|
E|----------------------|

E|--------------------------|
B|--------------------------|
G|--99999999-8888-99-11-11--|
D|--xxxxxxxx-xxxx-xx--x--x--| (x1)
A|--77777777-7777-77--7--7--|
E|--------------------------|

rest for a second

E|-----|
B|-----|
G|--9--|
D|--x--| (x1)
A|--7--|
E|-----|

E|-----------------------|
B|-----------------------|
G|--4~---2~--------4--4--|
D|--4~---2~---6~---4--4--| (x1)
A|--2~---0~---6~---2--2--|
E|------------4~---------|

then bridge

E|--------------------------|
B|--------------------------|
G|--------------------------|
D|-----0h2------------------| (x1)
A|---------2p0--------------|
E|--0------------3h5p3-2h3--|

E|--------------------------|
B|--------------------------|
G|--------------------------|
D|-----0h2-------------0h2--| (x3)
A|---------0h2--------------|
E|--0------------3h5p3------|

E|--------------------------|
B|--------------------------|
G|--------------------------|
D|-----0h2------------------| (x1)
A|---------2p0--------------|
E|--0------------3h5p3-2h3--|

E|--------------------------|
B|--------------------------|
G|--------------------------|
D|-----0h2-------------0h2--| (x3)
A|---------0h2--------------|
E|--0------------3h5p3------|

E|------|
B|------|
G|--9~--|
D|--9~--| (x1)
A|--7~--|
E|------|

E|-------------------------------|
B|-------------------------------|
G|-------------------------------|
D|----4-2-1-2--------------------| (x1)
A|--2-------------2-----2-0------|
E|--------------------------4-0--|

verse

E|---------------------------------------|
B|---------------------------------------|
G|--99999999-99999999-99999999-99999999--|
D|--xxxxxxxx-xxxxxxxx-xxxxxxxx-xxxxxxxx--| (x1)
A|--77777777-77777777-77777777-77777777--|
E|---------------------------------------|

E|-----------------------------------------|
B|-----------------------------------------|
G|--99999999-99999999-99999999---9-9--9-9--|
D|--xxxxxxxx-xxxxxxxx-xxxxxxxx---x-x--x-x--| (x1)
A|--77777777-77777777-77777777---7-7--7-7--|
E|-----------------------------------------|

chorus

E|--------------------------|
B|--------------------------|
G|--99999999-8888-99-11-11--|
D|--xxxxxxxx-xxxx-xx--x--x--| (x1)
A|--77777777-7777-77--7--7--|
E|--------------------------|

E|----------------------|
B|----------------------|
G|--99999999-8888-9999--|
D|--xxxxxxxx-xxxx-xxxx--| (x1)
A|--77777777-7777-7777--|
E|----------------------|

E|--------------------------|
B|--------------------------|
G|--99999999-8888-99-11-11--|
D|--xxxxxxxx-xxxx-xx--x--x--| (x1)
A|--77777777-7777-77--7--7--|
E|--------------------------|

E|----------------------|
B|----------------------|
G|--99999999-8888-9999--|
D|--xxxxxxxx-xxxx-xxxx--| (x1)
A|--77777777-7777-7777--|
E|----------------------|

E|-------------------------------------------------------|
B|-------------------------------------------------------|
G|------------------22222222-22222222-22222222-22222222--|
D|--4444-4--6666-6--22222222-22222222-22222222-22222222--| (x1)
A|--4444-4--6666-6--00000000-00000000-00000000-00000000--|
E|--2222-2--4444-4---------------------------------------|
    ^^^^    ^^^^    ^^^^^^^^ ^^^^^^^^  ^^^^^^^ ^^^^^^^^

E|---------------------------------------------|
B|---------------------------------------------|
G|------------------------------------4-4-4-4--|
D|--------------------------6-6-6-6---4-4-4-4--| (x1)
A|--2---2--2----0---0--0----6-6-6-6---2-2-2-2--|
E|-----2--2--------0--0-----4-4-4-4------------|

E|---------------------|
B|---------------------|
G|------------2~-------|
D|--2~---5~---2~---2~--| (x2)
A|--2~---5~---0~---2~--|
E|--0~---3~--------0~--|

end on

E|-----------------------|
B|-----------------------|
G|--2-2--------4---------|
D|--2-2---5-5--4----2-2--| (x1)
A|--0-0---5-5--2----2-2--|
E|--------3-3-------0-0--|


there you go! i hope it's not too confusing... if you have any comments or questions e-





Comments


Popular Unwritten Law tabs & chords
Seein' Red 1 Bass Tabs
Sorry Bass Tabs
C.P.K 1 Tabs
Cailin 2 Tabs
Harmonic 2 Tabs
Rest Of My Life Intro 1 Tabs
Sing Tabs
Teenage Suicide Tabs
Unwrittenxmas 1 Tabs
Cailin Ukulele


Song lyrics



↑ Back to top | Tablatures and chords are parodies/interpretations of the original songs. You may use it for private study, scholarship, research or language learning purposes only
© 2014 AZChords.com Contact us | Privacy policy | DMCA | Add/correct tabs | Request tabs | Top 50 tabs