» » »

Unwritten Law, Harmonic Tabs (ver.1)

Artists:  A B C D E F G H I J K L M N O P Q R S T U V W X Y Z # 

Harmonic Tabs (ver.1)

Unwritten Law Tabs
Rating:
4/5 (3 votes)
Harmonic lessons Tabs too difficult? Try these video lessons and learn fast
                

^=harmonics
/=slide up

--------------------------------------------------|---------------------------|
--------------------------------------------------|---------------------------|
--------------------------------------------------|---------------------------|
-----7-----7---7-----7-----7---7-----7-----7---7--|---------------------------|
-5-5---5-5---5------------------------------------|---------------------------|
-----------------0-0---0-0---0---3-3---3-3---3----|---------------------------|
 PM_____________________________________________

--------------------------------------------------|---------------------------|
--------------------------------------------------|---------------------------|
---------12^---------------------12---------------|---------------------------|
-12^---------12^--------------------12----12------|---------------------------|
---------------------12^---------------12---------|---------------------------|
-----------------12^------------------------------|---------------------------|


--------------------------------------------------|---------------------------|
--------------------------------------------------|---------------------------|
---------12^---------------------12-11------------|-7-7--7-7-7--7-7-7--7-7-7--|
-12^---------12^--------------------------12--5---|-7-7--7-7-7--7-7-7--7-7-7--|
---------------------12^---------------12---------|-5-5--5-5-5--5-5-5--5-5-5--|
-----------------12^------------------------------|---------------------------|
                                                    both giutars dist.

-----------------------------------------------------------------------------|
-----------------------------------------------------------------------------|
-5------------------------------------------------5-5--5-5-5--5-5-5-5--5-5-5-|
-5----------2-----------5-5--5-5-5--5-5-5--5-5-5--5-5--5-5-5--5-5-5-5--5-5-5-|
-7----------2-----------5-5--5-5-5--5-5-5--5-5-5--7-7--7-7-7--7-7-7-7--7-7-7-|
------------0-----------3-3--3-3-3--3-3-3--3-3-3-----------------------------|


-----------------------------------------------------------------|------------|
-----------------------------------------------------------------|------------|
-----------------------------------------------------------------|------------|
-5----------2-----------5-5--5-5-5-5--7-7--7-7-7--7-7-7--7-7-7-7-|------------|
-5----------2-----------5-5--5-5-5-5--7-7--7-7-7--7-7-7--7-7-7-7-|------------|
-7----------0-----------3-3--3-3-3-3--5-5--5-5-5--5-5-5--5-5-5-5-|------------|


------------------|-----------------------------------------------------------|
------------------|-----------------------------------------------------------|
-3-3-3-3--5-5-5-5-|-----------------------------------------------------------|
-3-3-3-3--5-5-5-5-|-----------------------------------------------------------|
-1-1-1-1--3-3-3-3-|-----------------------------------------------------------|
------------------|-----------------------------------------------------------|


-----------------------------------------------------|------------------------|
-----------------------------------------------------|------------------------|
-7-7--7-7-7--7-7-7--7-7-7--5-5--5-5-5--5-5-5--5-5-5--|------------------------|
-7-7--7-7-7--7-7-7--7-7-7--5-5--5-5-5--5-5-5--5-5-5--|------------------------|
-5-5--5-5-5--5-5-5--5-5-5--3-3--3-3-3--3-3-3--3-3-3--|------------------------|
-----------------------------------------------------|------------------------|


---------------------------------------------------|--------------------------|
---------------------------------------------------|--------------------------|
---------------------------3-3--3-3-3--5-5--5-5-5--|--------------------------|
-5-5--5-5-5--5-5-5--5-5-5--3-3--3-3-3--5-5--5-5-5--|--------------------------|
-5-5--5-5-5--5-5-5--5-5-5--1-1--1-1-1--3-3--3-3-3--|--------------------------|
-3-3--3-3-3--3-3-3--3-3-3--------------------------|--------------------------|


--------2--------------------------------------------------------------------|
--------3--------------------------------------------------------------------|
--------2--------------------------------------------------------2-------0---|
-7------0--------7-----7---7------5-----5---5-----5-----5---5--------2-----0-|
-7-----------5-5---5-5---5----2-2---2-2---2---3-3---3-3---3------------0-----|
-5-----------------------------------------------------------------3---------|
             PM_____________________________________________________________

-----------------------|------------------------------------------------------|
-----------------------|------------------------------------------------------|
----------------5/19-5-|------------------------------------------------------|
-----4-4hb-5-4--5/19-5-|------------------------------------------------------|
---5------------7/17-7-|------------------------------------------------------|
-3---------------------|------------------------------------------------------|
            

comments powered by Disqus
↑ Back to top | Unwritten Law Tabs for Harmonic. Lyrics for acoustic guitar and electric guitar. Tablatures and chords are parodies/interpretations of the original songs. You may use it for private study, scholarship, research or language learning purposes only