» » »

Harmonic Bass tabs (ver.1)

Artists:  A B C D E F G H I J K L M N O P Q R S T U V W X Y Z # 

Harmonic Bass tabs (ver.1)

Unwritten Law
Rating:
0/5 (0 votes)

Hard to play? Try these video lessons and learn fast.
                Band: Unwritten Law

* = play 10 times
** = play 8 times

INTRO
(Main Riff)
G:-----------------------------00-000-00-000--------------------|
D:-00-000-00-000-22-222-22-222---------------00-000-00-000------|
A:--------------------------------------------------------------|
E:--------------------------------------------------------------|
                                                             x 4
5th time play this:
G:-----------------------------00-000-00-000-------------2-------
D:-00-000-00-000-22-222-22-222---------------00-000-00-4---------
A:---------------------------------------------------------------
E:---------------------------------------------------------------

VERSE
G:-----------------------------------------------0*--------------
D:---0*--------------------2*------------------------------------
A:---------------------------------------------------------------
E:---------------------------------------------------------------

G:---------------------------------------------------------------
D:------------------------0*------------0*-----------------------
A:---------------------------------------------------------------
E:---------------------------------------------------------------

G:-------------------------------------------------0*------------
D:------------------------2*-------------------------------------
A:---------------------------------------------------------------
E:---------------------------------------------------------------

G:---------------------------------------------------------------
D:---------------------------------------------------------------
A:---------------0*----------------------------------------------
E:---------------------------------------------------------------

G:---------------------------------------------------------------
D:---------------------------------------------------------------
A:---11-111--------33-333----------------------------------------
E:---------------------------------------------------------------


G:-------0*-----2-2----------------------------------------------
D:-0*-2*----0-4-----4-0------------------------------------------
A:---------------------------------------------------------------
E:---------------------------------------------------------------

2nd VERSE
G:-----------------------------------------------0*--------------
D:---0*--------------------2*------------------------------------
A:---------------------------------------------------------------
E:---------------------------------------------------------------

G:---------------------------------------------------------------
D:-----------------------0*---------------0*---------------------
A:---------------------------------------------------------------
E:---------------------------------------------------------------

G:------------------------------------------------------0*-------
D:-------------------------2*------------------------------------
A:---------------------------------------------------------------
E:---------------------------------------------------------------

G:------------------------2*--33-333---------55-555--------------
D:---------------------------------------------------------------
A:---------------------------------------------------------------
E:---------------------------------------------------------------

CHORUS
G:---------------------------------------------------------------
D:----0*---------------------------------------------------------
A:--------------3*-----------------------------------------------
E:----------------------------3*---------------------------------

G:-----------------------------------------0---------------------
D:---------------------------------------0-----------------------
A:-------11-111--------------------33-33-------------------------
E:---------------------------------------------------------------

G:---------------------------------------------------------------
D:----0*---------------------------------------------------------
A:--------------3*-----------------------------------------------
E:-----------------------3*--------------------------------------

G:---------------------------------------------------------------
D:---------------------------------------------------------------
A:--------11-111--------------------33-333----3----3-------------
E:---------------------------------------------------------------

BRIDGE
G:--------------------------------------------------------------|
D:---0**--------------------------------------------------------|
A:----------2**-------3**---------0**---------------------------|
E:--------------------------------------------------------------|
                                                          x 4
Main Riff
CHORUS (except always end on A:--33-333--)
Main Riff
OUTRO

G:-------0-7-11-12-11-7--7---------------------------------------
D:-0*-2*---------------------------------------------------------
A:---------------------------------------------------------------
E:---------------------------------------------------------------
            
Hard to play? Try these video lessons and learn fast. | Correct




comments powered by Disqus
↑ Back to top | Tablatures and chords are parodies/interpretations of the original songs. You may use it for private study, scholarship, research or language learning purposes only