» » »

Execute Them All Tabs (ver.2)

Artists:  A B C D E F G H I J K L M N O P Q R S T U V W X Y Z # 

Execute Them All Tabs (ver.2)

Unleashed
Rating:
0/5 (0 votes)

Hard to play? Try these video lessons and learn fast.
                
EXECUTE THEM ALL
As recorded by Unleashed
(From the 1993 Album ACROSS THE OPEN SEA)

        

Words by Johnny Hedlund Music by Tomas Olsson

Gtr I (B E A D F# B) - 'Untitled'
Gtr II (B E A D F# B) - 'Untitled'

 Intro
  Q=180
  G5E5              G5    G5    G5
 4/4
  Gtr I
      PM--------|     PM|   PM|   PM
  E E E E E E E E   E E E E E E E E
|-----------------|-----------------|
|-----------------|-----------------|
|-----------------|-----------------|
|-----------------|-----------------|
|-5-2-------------|-5-----5-----5---|
|-3-0-0-0-0-0-0-0-|-3-0-0-3-0-0-3-0-|
|
| Gtr II
| W                 W
|-----------------|-----------------|
|-----------------|-----------------|
|-----------------|-----------------|
|-----------------|-----------------|
|-----------------|-----------------|
|-----------------|-----------------|


  G5E5
      PM------------------------------------------|
  E E E E E E E E   S S S S S S S S S S S S S S S S
|-----------------|-----------------------------------|
|-----------------|-----------------------------------|
|-----------------|-----------------------------------|
|-----------------|-----------------------------------|
|-5-2-------------|-----------------------------------|
|-3-0-0-0-0-0-0-0-|-1-1-1-1-3-3-3-3-4-4-4-4-3-3-3-3---|
|
| W                 W
|-----------------|-----------------------------------|
|-----------------|-----------------------------------|
|-----------------|-----------------------------------|
|-----------------|-----------------------------------|
|-----------------|-----------------------------------|
|-----------------|-----------------------------------|


  G5E5               G5    G5    G5
      PM---------|     PM|   PM|   PM
  E E E  E E E E E   E E E E E E E E
|------------------|-----------------|
|------------------|-----------------|
|------------------|-----------------|
|------------------|-----------------|
|-5-2--------------|-5-----5-----5---|
|-3-0-0--0-0-0-0-0-|-3-0-0-3-0-0-3-0-|
|
| E E H.             E Q   E Q   E E
|------------------|-----------------|
|------------------|-----------------|
|------------------|-----------------|
|------------------|-----------------|
|-5-2--------------|-5-----5-----5---|
|-3-0--------------|-3-----3-----3---|


  G5E5
      PM-------------------------------------------|
  E E E  E E E E E   S S S S S S S S S S S S S S S S
|------------------|----------------------------------|
|------------------|----------------------------------|
|------------------|----------------------------------|
|------------------|----------------------------------|
|-5-2--------------|----------------------------------|
|-3-0-0--0-0-0-0-0-|-1-1-1-1-3-3-3-3-4-4-4-4-3-3-3-3--|
|
| E E H.             W
|------------------|----------------------------------|
|------------------|----------------------------------|
|------------------|----------------------------------|
|------------------|----------------------------------|
|-5-2--------------|----------------------------------|
|-3-0--------------|----------------------------------|


    $
    G5E5              G5    G5    G5
    Gtrs I, II
        PM--------|     PM|   PM|   PM
    E E E E E E E E   E E E E E E E E
||------------------|-----------------|
||o-----------------|-----------------|
||------------------|-----------------|
||------------------|-----------------|
||o-5-2-------------|-5-----5-----5---|
||--3-0-0-0-0-0-0-0-|-3-0-0-3-0-0-3-0-|


  G5E5
      PM------------------------------------------|
  E E E E E E E E   S S S S S S S S S S S S S S S S  4x
|-----------------|----------------------------------||
|-----------------|---------------------------------o||
|-----------------|----------------------------------||
|-----------------|----------------------------------||
|-5-2-------------|---------------------------------o||
|-3-0-0-0-0-0-0-0-|-1-1-1-1-3-3-3-3-4-4-4-4-3-3-3-3--||


  S S S S S S S S S S S S S S S S
|---------------------------------|
|---------------------------------|
|---------------------------------|
|-3-3-3-3-5-5-5-5-6-6-6-6-5-5-5-5-|
|---------------------------------|
|---------------------------------|


                                    F5 G5 G#5G5   E5
  S S S S S S S S S S S S S S S S   Q  Q  Q  Q    W
|-1-1-1-1-3-3-3-3-4-4-4-4-3-3-3-3-|-------------|------|
|---------------------------------|-------------|------|
|---------------------------------|-------------|------|
|---------------------------------|-------------|------|
|---------------------------------|-3--5--6--5--|-2----|
|---------------------------------|-1--3--4--3--|-0----|


           E5                            F5   E5
           PM----------|
  +H.      E E   E E E E H      +H.      Q    W
|--------------|--------------|-------------|------|
|--------------|--------------|-------------|------|
|--------------|--------------|-------------|------|
|--------------|--------------|-------------|------|
|-(2)------2-2-|-2-2-2-2-2----|-(2)------3--|-2----|
|-(0)------0-0-|-0-0-0-0-0----|-(0)------1--|-0----|


           E5
           PM----------|        PM----------------------------|
  +H.      E E   E E E E H      S S S S S S S S S S S S S S S S
|--------------|--------------|----------------------------------|
|--------------|--------------|----------------------------------|
|--------------|--------------|----------------------------------|
|--------------|--------------|----------------------------------|
|-(2)------2-2-|-2-2-2-2-2----|----------------------------------|
|-(0)------0-0-|-0-0-0-0-0----|-1-1-1-1-3-3-3-3-4-4-4-4-3-3-3-3--|


   Verse
    Q  S S S S S S S S S S S S   S S S S S S S S S S S S S S S S
||-----------------------------|----------------------------------|
||o----------------------------|----------------------------------|
||-----------------------------|----------------------------------|
||-----------------------------|----------------------------------|
||o-2--------------------------|----------------------------------|
||--0--0-0-0-0-0-0-0-0-0-0-0-0-|-0-0-0-0-0-0-0-0-0-0-0-0-0-0-0-0--|


  S S S S S S S S S S S S S S S S   S S S S S S S S S S S S S S S S
|---------------------------------|---------------------------------|
|---------------------------------|---------------------------------|
|---------------------------------|---------------------------------|
|---------------------------------|-3-3-3-3-5-5-5-5-6-6-6-6-5-5-5-5-|
|---------------------------------|---------------------------------|
|-0-0-0-0-0-0-0-0-0-0-0-0-0-0-0-0-|---------------------------------|


  S S S S S S S S S S S S S S S S   S S S S S S S S S S S S S S S S
|---------------------------------|---------------------------------|
|---------------------------------|---------------------------------|
|---------------------------------|---------------------------------|
|---------------------------------|---------------------------------|
|---------------------------------|---------------------------------|
|-0-0-0-0-0-0-0-0-0-0-0-0-0-0-0-0-|-0-0-0-0-0-0-0-0-0-0-0-0-0-0-0-0-|


  S S S S S S S S S S S S S S S S   S S S S S S S S S S S S S S S S
|---------------------------------|---------------------------------|
|---------------------------------|---------------------------------|
|---------------------------------|---------------------------------|
|---------------------------------|-3-3-3-3-5-5-5-5-6-6-6-6-5-5-5-5-|
|---------------------------------|---------------------------------|
|-0-0-0-0-0-0-0-0-0-0-0-0-0-0-0-0-|---------------------------------|


 Chorus
  G#5
  W          S S S S S S S S  S  S  S  S S S S S
|----------|-------------------------------------|
|----------|-------------------------------------|
|----------|-------------------------------------|
|----------|-7-7-7-7-9-9-9-9-10-10-10-10-9-9-9-9-|
|-6--------|-------------------------------------|
|-4--------|-------------------------------------|


  G#5
  W          S S S S S S S S  S  S  S  S S S S S
|----------|-----------------------------------------||
|----------|----------------------------------------o||
|----------|-----------------------------------------||
|----------|-7-7-7-7-9-9-9-9-10-10-10-10-9-9-9-9-----||
|-6--------|----------------------------------------o||
|-4--------|-----------------------------------------||


D.S.
     E5     E5                         E5     E5
        PM|    PM|       PM    PM         PM|    PM|       PM    PM
     Q  E E Q  E E   E E E E E E E E   Q  E E Q  E E   E E E E E E E E
||-----------------|-----------------|---------------|-----------------|
||o----------------|-----------------|---------------|-----------------|
||-----------------|-----------------|---------------|-----------------|
||-----------------|-----------------|---------------|-----------------|
||o--2------2------|-----------------|-2------2------|-----------------|
||---0--0-0-0--0-0-|-4p1-0-4p1-0-4p1-|-0--0-0-0--0-0-|-4p1-0-4p1-0-4p1-|


  G#5    G#5                        G#5    G#5
     PM|    PM|       PM    PM         PM|    PM|       PM    PM
  Q  E E Q  E E   E E E E E E E E   Q  E E Q  E E   E E E E E E E E
|---------------|-----------------|---------------|------------------||
|---------------|-----------------|---------------|-----------------o||
|---------------|-----------------|---------------|------------------||
|---------------|-----------------|---------------|------------------||
|-6------6------|-----------------|-6------6------|-----------------o||
|-4--4-4-4--4-4-|-7p4-0-7p4-0-7p4-|-4--4-4-4--4-4-|-7p4-0-7p4-0-7p4--||


   Outro
    G5E5              G5    G5    G5
    Gtr I
        PM--------|     PM|   PM|   PM
    E E E E E E E E   E E E E E E E E
||------------------|-----------------|
||o-----------------|-----------------|
||------------------|-----------------|
||------------------|-----------------|
||o-5-2-------------|-5-----5-----5---|
||--3-0-0-0-0-0-0-0-|-3-0-0-3-0-0-3-0-|


  G5E5
      PM------------------------------------------|
  E E E E E E E E   S S S S S S S S S S S S S S S S
|-----------------|----------------------------------||
|-----------------|---------------------------------o||
|-----------------|----------------------------------||
|-----------------|----------------------------------||
|-5-2-------------|---------------------------------o||
|-3-0-0-0-0-0-0-0-|-1-1-1-1-3-3-3-3-4-4-4-4-3-3-3-3--||


  S S S S S S S S S S S S S S S S
|---------------------------------|
|---------------------------------|
|---------------------------------|
|-3-3-3-3-5-5-5-5-6-6-6-6-5-5-5-5-|
|---------------------------------|
|---------------------------------|


                                    F5 G5 G#5G5   E5
  S S S S S S S S S S S S S S S S   Q  Q  Q  Q    Q  H.
|-1-1-1-1-3-3-3-3-4-4-4-4-3-3-3-3-|-------------|----------*|
|---------------------------------|-------------|----------*|
|---------------------------------|-------------|----------*|
|---------------------------------|-------------|----------*|
|---------------------------------|-3--5--6--5--|-2--------*|
|---------------------------------|-1--3--4--3--|-0--------*|



Duration Legend
---------------
W - whole; H - half; Q - quarter; E - 8th; S - 16th; T - 32nd; X - 64th; a - acciaccatura
+ - note tied to previous; . - note dotted; .. - note double dotted
Uncapitalized letters represent notes that are staccato (1/2 duration)
Irregular groupings are notated above the duration line
Duration letters will always appear directly above the note/fret number it represents the
duration for.  Duration letters with no fret number below them represent rests.  Multi-
bar rests are notated in the form Wxn, where n is the number of bars to rest for.  Low
melody durations appear below the staff

Tablature Legend
----------------
 h   - hammer-on
 p   - pull-off
 b   - bend
 pb  - pre-bend
 r   - bend release (if no number after the r, then release immediately)
 /\  - slide into or out of (from/to "nowhere")
 s   - legato slide
 S   - shift slide
 - natural harmonic
[n]  - artificial harmonic
n(n) - tapped harmonic
 ~   - vibrato
 tr  - trill
 T   - tap
 TP  - trem. picking
 PM  - palm muting
\n/  - tremolo bar dip; n = amount to dip
 \n  - tremolo bar down
 n/  - tremolo bar up
/n\  - tremolo bar inverted dip
 =   - hold bend; also acts as connecting device for hammers/pulls
 <> - volume swell (louder/softer)
 x   - on rhythm slash represents muted slash
 o   - on rhythm slash represents single note slash

Misc Legend
-----------
 |  - bar
||  - double bar
||o - repeat start
o|| - repeat end
*|  - double bar (ending)
 :  - bar (freetime)
 $  - Segno
 &  - Coda
Tempo markers -  = BPM(8/16=s8/s16), where s8 = swing 8ths, s16 = swing 16ths
            
Hard to play? Try these video lessons and learn fast. | Correct




comments powered by Disqus
↑ Back to top | Tablatures and chords are parodies/interpretations of the original songs. You may use it for private study, scholarship, research or language learning purposes only