» » »

Unleashed, Execute Them All Tabs (ver.1)

Artists:  A B C D E F G H I J K L M N O P Q R S T U V W X Y Z # 

Execute Them All Tabs (ver.1)

Unleashed Tabs
Rating:
4/5 (1 vote)
Execute Them All lessons Tabs too difficult? Try these video lessons and learn fast
                
For Questions, Comments, Newest Version, or Corrections contact


.  - palm mute           /  - slide up to
\  - slide down to       ~  - vibrato
h  - hammer on           b  - bend
p  - pull off            Suffixes for bend ^
ph - pinched harmonic     f - full bend    h - half bend
*  - see comment          r - release      t - tap bend
X  - Rest                 ~ - vibrato bend q - quarter bend
,  - slight palm mute    () - ghost note, sustained note
"  - Tromolo note        <> - Trill
t\ - Tap slide

Tuning: "B"E"A"D"F#"B"


Riff 1
|-----------------------------------|-----------------------------------|
|-----------------------------------|-----------------------------------|
|-----------------------------------|-----------------------------------|
|-----------------------------------|-----------------------------------|
|--5/2-------------5-----5-----5----|-5/2-------------------------------|
|--3/0-0-0-0-0-0-0-3-0-0-3-0-0-3-0--|-3/0-0-0-0-0-0-0-1111333344443333--|
       . . . . . .   . .   . .   .         . . . . . . ................

Fill 1
|------------------1111333344443333-|-----------------------------------|
|-----------------------------------|-----------------------------------|
|-----------------------------------|-----------------------------------|
|--3333555566665555-----------------|-----------------------------------|
|-----------------------------------|--3---5---6---5---2----------------|
|-----------------------------------|--1---3---4---3---0----------------|


Riff 2
|-----------------------------------|-----------------------------------|
|-----------------------------------|-----------------------------------|
|-----------------------------------|-----------------------------------|
|-----------------------------------|-----------------------------------|
|--2-2-2-2-2--2-------3--2----------|--2-2-2-2-2--2---------------------|
|--0-0-0-0-0--0-------1--0----------|--0-0-0-0-0--0---1111333344443333--|
   . . . .                             . . . .        ................

Riff 3-A
|-----------------------------------|-----------------------------------|
|-----------------------------------|-----------------------------------|
|-----------------------------------|-----------------------------------|
|-----------------------------------|-----------------3333555566665555--|
|--2--------------------------------|-----------------------------------|
|--0--00000000000000000000000000000-|-0000000000000000------------------|
      .............................   ................

Riff 3-B
|-----------------------------------|-----------------------------------|
|-----------------------------------|-----------------------------------|
|-----------------------------------|-----------------------------------|
|-----------------------------------|-----------------3333555566665555--|
|-----------------------------------|-----------------------------------|
|--00000000000000000000000000000000-|-0000000000000000------------------|
   ................................   ................

Riff 4
|-----------------------------------|-----------------------------------|
|-----------------------------------|-----------------------------------|
|-----------------------------------|-----------------------------------|
|-------------77779999101010109999--|-------------77779999101010109999--|
|--6--------------------------------|--6--------------------------------|
|--4--------------------------------|--4--------------------------------|


Riff 5-A
|-----------------------------------|-----------------------------------|
|-----------------------------------|-----------------------------------|
|-----------------------------------|-----------------------------------|
|-----------------------------------|-----------------------------------|
|--2------2-------------------------|--2------2-------------------------|
|--0--0-0-0--0-0-4p1--0-4p1--0-4p1--|--0--0-0-0--0-0-4p1--0-4p1--0-4p1--|
      . .    . .      .      .            . .    . .      .      .

Riff 5-B
|-----------------------------------|-----------------------------------|
|-----------------------------------|-----------------------------------|
|-----------------------------------|-----------------------------------|
|-----------------------------------|-----------------------------------|
|--6------6-------------------------|--6------6-------------------------|
|--4--0-0-4--0-0-7p4--0-7p4--0-7p4--|--4--0-0-4--0-0-7p4--0-7p4--0-7p4--|
      . .    . .      .      .            . .    . .      .      .

End
|-----------------------------------|
|-----------------------------------|
|-----------------------------------|
|-----------------------------------|
|--2x-------------------------------|
|--0x-------------------------------|
            
Submit corrections

comments powered by Disqus
↑ Back to top | Unleashed Tabs for Execute Them All. Lyrics for acoustic guitar and electric guitar. Tablatures and chords are parodies/interpretations of the original songs. You may use it for private study, scholarship, research or language learning purposes only