» » »

Kukka Tabs (ver.1)

Artists:  A B C D E F G H I J K L M N O P Q R S T U V W X Y Z # 

Kukka Tabs (ver.1)

Uniklubi
Rating:
5/5 (3 votes)

Hard to play? Try these video lessons and learn fast.
                
   



 INTRO:
   
e|--------6------6-------6--6-5-3--|---------------------------------|
B|----8------8-------8-------------|-------6-----6-----5s3-----------|
G|---------------------------------|----7-----7-----7----------------|
D|---------------------------------|---------------------------------|
A|---------------------------------|---------------------------------|
E|---------------------------------|---------------------------------|


   
e|--------6------6-------6--6-5-3--|---------------------------------|
B|----8------8-------8-------------|-------6-----6-----5s3-----------|
G|---------------------------------|----7-----7-----7----------------|
D|---------------------------------|---------------------------------|
A|---------------------------------|---------------------------------|
E|---------------------------------|---------------------------------|



e|-------------------------------------------------------------------|
B|-------------10----------------------------------------------------|
G|---10--10--10--10--10----10-10-12-12-12-14-12h---------------------|
D|-10--10--10------10------------------------------------------------|
A|-------------------------------------------------------------------|
E|-------------------------------------------------------------------|




1.38

e|--------6------6-------6--6-5-3--|---------------------------------|
B|----8------8-------8-------------|-------6-----6-----5s3-----------|
G|---------------------------------|----7-----7-----7----------------|
D|---------------------------------|---------------------------------|
A|---------------------------------|---------------------------------|
E|---------------------------------|---------------------------------|



e|--------6------6-------6--6-5-3--|---------------------------------|
B|----8------8-------8-------------|-------6-----6-----5s3-----------|
G|---------------------------------|----7-----7-----7----------------|
D|---------------------------------|---------------------------------|
A|---------------------------------|---------------------------------|
E|---------------------------------|---------------------------------|


            
e|-------------------------------------------------------------------|
B|-------------10----------------------------------------------------|
G|---10--10--10--10--10----10-10-12-12-12-14-12h---------------------|
D|-10--10--10------10------------------------------------------------|
A|-------------------------------------------------------------------|
E|-------------------------------------------------------------------|




2.51

e|--------------------------------|-----------------------------------|
B|-11--10--8--6--8--6---6-----6s8-|-11-10-8-6-8-6--6------------------|
G|--------------------7---3s5-----|---------------7--3s5--------------|
D|--------------------------------|----------------------3s5----------|
A|--------------------------------|-----------------------------------|
E|--------------------------------|-----------------------------------|



e|-------------------------------|-----------------------------------|
B|-11--10--8--6--8--6--------6s8-|-11-10-8-6-8-6---------------------|
G|--------------------7--3s5-----|---------------7-3s5---------------|
D|-------------------------------|---------------------3s5-----------|
A|-------------------------------|-----------------------------------|
E|-------------------------------|-----------------------------------|



3.50

e|--------6------6-------6--6-5-3--|---------------------------------|
B|----8------8-------8-------------|-------6-----6-----5s3-----------|
G|---------------------------------|----7-----7-----7----------------|
D|---------------------------------|---------------------------------|
A|---------------------------------|---------------------------------|
E|---------------------------------|---------------------------------|



e|--------6------6-------6--6-5-3--|---------------------------------|
B|----8------8-------8-------------|-------6-----6-----5s3-----------|
G|---------------------------------|----7-----7-----7----------------|
D|---------------------------------|---------------------------------|
A|---------------------------------|---------------------------------|
E|---------------------------------|---------------------------------|


            
e|-------------------------------------------------------------------|
B|-------------10----------------------------------------------------|
G|---10--10--10--10--10----10-10-12-12-12-14-12h---------------------|
D|-10--10--10------10------------------------------------------------|
A|-------------------------------------------------------------------|
E|-------------------------------------------------------------------|




loistava kappale uniklubilta. Oli pakko tabittaa kun netistä ei löytyny. Enjoy!
            
Hard to play? Try these video lessons and learn fast. | Correct




comments powered by Disqus
↑ Back to top | Tablatures and chords are parodies/interpretations of the original songs. You may use it for private study, scholarship, research or language learning purposes only