» » »

Uniklubi, Kukka Tabs (ver.2)

Artists:  A B C D E F G H I J K L M N O P Q R S T U V W X Y Z # 

Kukka Tabs (ver.2)

Uniklubi Tabs
 Rating:
4/5 (4 votes)
Kukka lessons Tabs too difficult? Try these video lessons and learn fast
                I really love this song so I figured out how to play it and here's what I got. It sounds 
good to me but if you think something's wrong just send me a message or a mail and I'll 
a look at it :)

Intro:

e: -----------------------------------------------------------|
b: ------11----11----11----11--10--8--------------------------|
g: ---------------------------------------10-----10-----9--7--|
D: ---8-----8-----8-----8--------------7------7------7--------|
A: -----------------------------------------------------------|
E: -----------------------------------------------------------|


e: -----------------------------------------------------------|
b: ------11----11-----11----11--10--8-------------------------|
g: ---------------------------------------10-----10-----9--7--|
D: ---8-----8------8-----8-------------7------7------7--------|
A: -----------------------------------------------------------|
E: -----------------------------------------------------------|


e: --------------------------------------------------------|
b: ----------------10--------------------------------------|
g: ---10---10---10----12-10-12-12----10----10-10-10-14-12--|
D: 10---10---10-------------------10----10-----------------|
A: --------------------------------------------------------|
E: --------------------------------------------------------|


Verse (2x):

e: -----------------------------------------------------|
b: -----------------------------------------------------|
g: -----------------------------7--77-7--77-7--77-7--77-|
D: --5--55-5--55-5--55-5--55----7--77-7--77-7--77-7--77-|
A: --5--55-5--55-5--55-5--55----5--55-5--55-5--55-5--55-|
E: --3--33-3--33-3--33-3--33----------------------------|


e: -----------------------------------------------------|
b: -----------------------------------------------------|
g:------------------------------7--77-7--77-7--77-7--77-|
D: --5--55-5--55-5--55-5--55----7--77-7--77-7--77-7--77-|
A: --5--55-5--55-5--55-5--55----5--55-5--55-5--55-5--55-|
E: --3--33-3--33-3--33-3--33----------------------------|


e: -----------------------------------------------------|
b: -----------------------------------------------------|
g: -----------------------------5--55-5--55-5--55-5--55-|
D: --3--33-3--33-3--33-3--33----5--55-5--55-5--55-5--55-|
A: --3--33-3--33-3--33-3--33----3--33-3--33-3--33-3--33-|
E: --1--11-1--11-1--11-1--11----------------------------|


Chorus (4x):

e: --------------------------------------------------|
b: --------------------------------------------------|
g: --------------7--77--777--------------5--55--555--|
D: --5--55--555--7--77--777--3--33--333--5--55--555--|
A: --5--55--555--5--55--555--3--33--333--3--33--333--|
E: --3--33--333--------------1--11--111--------------|


Intro

Verse 1x

Chorus


Solo (2x):

e: --6-5---------------------6-5--------------------|
b: ------8-6-8-6-------6-8-------8-6-8-6------------|
g: --------------7-5-7-------------------7-5-7------|
D: ---------------------------------------------8-5-|
A: -------------------------------------------------|
E: -------------------------------------------------|


Chorus

Intro


In the end of the song you just play a G chord.
            
Submit corrections

comments powered by Disqus
↑ Back to top | Uniklubi Tabs for Kukka. Lyrics for acoustic guitar and electric guitar. Tablatures and chords are parodies/interpretations of the original songs. You may use it for private study, scholarship, research or language learning purposes only