» » »

Unicorns, I Was Born (A Unicorn) Tabs (ver.2)

Artists:  A B C D E F G H I J K L M N O P Q R S T U V W X Y Z # 

I Was Born (A Unicorn) Tabs (ver.2)

Unicorns Tabs
 Rating:
4/5 (4 votes)
I Was Born (A Unicorn) lessons Tabs too difficult? Try these video lessons and learn fast
                -------------------------------------------------------------------------------
                             I was born (a unicorn) - The Unicorns
-------------------------------------------------------------------------------

Since the tab on here by Ginko is really bad, I did it myself.
When you play along with the track, it sounds a bit flat, but I swear it's almost entirely right.

Intro
e|---12-------12-------12----12-14-12---12-------12-------12----12-14-14-12-|
B|-----14-------14-------14---------------14-------14-------14--------------|
G|-14----14-14----14-13----13---------14----14-14----14-13----13------------|
D|--------------------------------------------------------------------------|
A|--------------------------------------------------------------------------|
E|--------------------------------------------------------------------------|

e|---12-------12-------12----12-14-12---12-------12-------12----12-14-16----|
B|-----14-------14-------14---------------14-------14-------14--------------|
G|-14----14-14----14-13----13---------14----14-14----14-13----13------------|
D|--------------------------------------------------------------------------|
A|--------------------------------------------------------------------------|
E|--------------------------------------------------------------------------|

e|--5----5----7---7-9-7-9--5----5----7---999997-----------------------------|
B|---5----5----9--9-9-9-9---5----5----9--999999-----------------------------|
G|-6--6-6--6/9--9-9-9-9-9-6--6-6--6/9--9-999999-----------------------------|
D|--------------------------------------------------------------------------|
A|--------------------------------------------------------------------------|
E|--------------------------------------------------------------------------|

e|--5----5----7---7-9-7-9--5----5----7---7~---------------------------------|
B|---5----5----9--9-9-9-9---5----5----9--9~---------------------------------|
G|-6--6-6--6/9--9-9-9-9-9-6--6-6--6/9--9-9~---------------------------------|
D|--------------------------------------------------------------------------|
A|--------------------------------------------------------------------------|
E|--------------------------------------------------------------------------|

Verse
e|-----------------------5--|
B|----5-----7-----5-----5---|
G|-6-6-6-7-7-7-6-6-6-4-4----| Play 7 times.
D|--------------------------|
A|--------------------------|
E|--------------------------|

Bridge
e|-0-0-0-0-0-0-0-0-0-0-0-0--|
B|-2-1/2-1/2-1/2-1/2-1/2-2--|
G|-2-1/2-1/2-1/2-1/2-1/2-2--|
D|-2-1/2-1/2-1/2-1/2-1/2-2--|
A|-0-0-0-0-0-0-0-0-0-0-0-0--|
E|-0-0-0-0-0-0-0-0-0-0-0-0--|

Chorus
e|-0-00---------------------|
B|-2-22---------------------|
G|-2-22---------------------| Play 4 times.
D|-2-22---------------------|
A|-0-00-3-4-5/7-77777~------|
E|-0-00---------------------|

Verse
e|-----------------------5--|
B|----5-----7-----5-----5---|
G|-6-6-6-7-7-7-6-6-6-4-4----| Play 3 times.
D|--------------------------|
A|--------------------------|
E|--------------------------|

Bridge
e|-0-0-0-0-0-0-0-0-0-0-0-0-0-0-0-0-0-0-0-0-0-0--|
B|-2-1/2-1/2-1/2-1/2-1/2-1/2-1-2-1-2-1-2-1-2-1--|
G|-2-1/2-1/2-1/2-1/2-1/2-1/2-1-2-1-2-1-2-1-2-1--|
D|-2-1/2-1/2-1/2-1/2-1/2-1/2-1-2-1-2-1-2-1-2-1--|
A|-0-0-0-0-0-0-0-0-0-0-0-0-0-0-0-0-0-0-0-0-0-0--|
E|-0-0-0-0-0-0-0-0-0-0-0-0-0-0-0-0-0-0-0-0-0-0--|

Verse
e|-0-00-0000-0-00-0000------|
B|-2-22-2222-0-00-0000------|
G|-2-22-2222-1-11-1111------| play 8 times.
D|-2-22-2424-2-22-2222------|
A|-0-00-0000-2-22-2424------|
E|-0-00-0000-0-00-0000------|

Coda
e|-0-0-0-0-0-0-0-0-0-0-0-0-0-0-0-0-0-0-0-0-0-0-0--|
B|-2-1/2-1/2-1/2-1/2-1/2-1/2-1-2-1-2-1-2-1-2-1-2--|
G|-2-1/2-1/2-1/2-1/2-1/2-1/2-1-2-1-2-1-2-1-2-1-2--|
D|-2-1/2-1/2-1/2-1/2-1/2-1/2-1-2-1-2-1-2-1-2-1-2--|
A|-0-0-0-0-0-0-0-0-0-0-0-0-0-0-0-0-0-0-0-0-0-0-0--|
E|-0-0-0-0-0-0-0-0-0-0-0-0-0-0-0-0-0-0-0-0-0-0-0--|
            
Submit corrections

comments powered by Disqus
↑ Back to top | Unicorns Tabs for I Was Born (A Unicorn). Lyrics for acoustic guitar and electric guitar. Tablatures and chords are parodies/interpretations of the original songs. You may use it for private study, scholarship, research or language learning purposes only