>
 >
I Was Born (A Unicorn) 2

I Was Born (A Unicorn) 2 Bass Tabs

Unicorns - I Was Born (A Unicorn) 2 chords, tabs, tablatures, lyrics

Guitar lessons | Add/correct | Request | Top 50 tabs Artists:  A B C D E F G H I J K L M N O P Q R S T U V W X Y Z 0-9

I Was Born (A Unicorn) 2 Bass Tabs – Unicorns

CD, Sheet music, Poster

Do you like I Was Born (A Unicorn) 2? Share with your friends now
Bass TabsBass Tabs v2Bass Tabs v3TabsTabs v2Tabs v3
I Was Born (A Unicorn)                              
The Unicorns
Bass
Tune down 1/4 step


G||-------|-------|-------|-------|-------|-------|-------|-------|-------|
D||-------|-------|-------|-------|-------|-------|-------|-------|-------|
A||-------|-------|-------|-------|-------|-------|-------|-------|-------|
E||-------|-------|-------|-------|-------|-------|-------|-------|-------|


                                                  H        Q     Q      
-------|-------|-------|-------|-------|-------|-----------------------|
-------|-------|-------|-------|-------|-------|-----------------------|
-------|-------|-------|-------|-------|-------|-----------------------|
-------|-------|-------|-------|-------|-------|----------------17S----|


                                                         |----6----|     
  Q.     E  E  E  E  E     W                   Q.     E  Q    Q    Q     
------------------------|-------------------|---------------------------|
------------------------|-------------------|---------------------------|
---------------4--5--6--|--7----------------|------------4----5----6----|
--5------5--5-----------|-------------------|--5------5-----------------|


  W                   Q.     E  E  E  E  E     W                 
-------------------|------------------------|-------------------|
-------------------|------------------------|-------------------|
--7----------------|---------------4--5--6--|--7----------------|
-------------------|--5------5--5-----------|-------------------|


            |----6----|                                                         
  Q.     E  Q    Q    Q       W                                                 
---------------------------|-------------------|-------|-------|-------|-------|
---------------------------|-------------------|-------|-------|-------|-------|
------------4----5----6----|--7----------------|-------|-------|-------|-------|
--5------5-----------------|-------------------|-------|-------|-------|-------|


                          H        E  E  E  E     E  E  Q    H                 
-------|-------|-------|-----------------------|----------------------|-------|
-------|-------|-------|-----------------------|----------------------|-------|
-------|-------|-------|-----------------------|----------------------|-------|
-------|-------|-------|--------------5--5--5--|--5-------------------|-------|


          H        E  E  E  E     E  E  Q    H                 
-------|-----------------------|----------------------|-------|
-------|-----------------------|----------------------|-------|
-------|-----------------------|----------------------|-------|
-------|--------------5--5--5--|--5-------------------|-------|


  Q.     E  Q.     E     Q.     E  Q.     E     Q.     E  Q.     E   
----------------------|----------------------|----------------------|
----------------------|----------------------|----------------------|
----------------------|----------------------|----------------------|
--5------4--5------4--|--5------4--5------4--|--5------4--5------4--|


  E  E  E  E  E  E  E  E     Q.     E  E  E  E  E     H        H         
--------------------------|------------------------|--------------------|
--------------------------|------------------------|--------------------|
--------------------------|------------4--5--6--7--|--7-----------------|
--5--5--5--5--5--5--5--5--|--5------5--------------|-----------0--------|


            |----6----|                 |----6----|     
  Q.     E  Q    Q    Q       Q.     E  Q    Q    Q     
---------------------------|---------------------------|
---------------------------|------------4--------------|
------------4----5----6----|--7------7-------7----4----|
--5------5-----------------|---------------------------|


                                                              |----6----|     
  Q.     E  E  E  E  E     Q.     E  E  E  E  E     Q.     E  Q    Q    Q     
------------------------|------------------------|---------------------------|
------------------------|------------------------|---------------------------|
------------4--5--6--7--|--7------7--7--5--4--5--|------------4----5----6----|
--5------5--------------|------------------------|--5------5-----------------|


            |----6----|                                             
  Q.     E  Q    Q    Q       E  E  E  E  H                         
---------------------------|-----------------------|-------|-------|
------------4--------------|-----------------------|-------|-------|
--7------7-------7----4----|-----------------------|-------|-------|
---------------------------|--5-----5--------------|-------|-------|


  H        E  E  E  E     E  E  Q    H                                 
-----------------------|----------------------|-------|-------|-------|
-----------------------|----------------------|-------|-------|-------|
-----------------------|----------------------|-------|-------|-------|
--------------5--5--5--|--5-------------------|-------|-------|-------|


  Q    Q    Q    Q       Q    Q    Q    Q       Q    Q    Q    Q     
----------------------|----------------------|----------------------|
----------------------|----------------------|----------------------|
----------------------|----------------------|----------------------|
-------5---------5----|-------5---------5----|-------5---------5----|


  Q    Q    E  E  E  E     E  E  Q    H                                         
------------------------|----------------------|-------|-------|-------|-------|
------------------------|----------------------|-------|-------|-------|-------|
------------------------|----------------------|-------|-------|-------|-------|
-------5-------5--5--5--|--5-------------------|-------|-------|-------|-------|


                          H        H           H        H         
-------|-------|-------|--------------------|--------------------|
-------|-------|-------|--------------------|--------------------|
-------|-------|-------|--------------------|--------------------|
-------|-------|-------|--5--------5--------|--0--------0--------|


  H        H           H        H           H        H         
--------------------|--------------------|--------------------|
--------------------|--------------------|--------------------|
--------------------|--------------------|--------------------|
--5--------5--------|--0--------0--------|--5--------5--------|


  H        H           H        H           H        H         
--------------------|--------------------|--------------------|
--------------------|--------------------|--------------------|
--------------------|--------------------|--------------------|
--0--------0--------|--5--------5--------|--0--------0--------|


  E  E  E  E  E  E  E  E     E  E  E  E  E  E  E  E   
--------------------------|--------------------------|
--------------------------|--------------------------|
--------------------------|--------------------------|
--5--5--5--5--5--5--5--5--|--0--0--0--0--0--0--0--0--|


  E  E  E  E  E  E  E  E     E  E  E  E  E  E  E  E   
--------------------------|--------------------------|
--------------------------|--------------------------|
--------------------------|--7--7--7--7--7--7--7--7--|
--5--5--5--5--5--5--5--5--|--------------------------|


  E  E  E  E  E  E  E  E     E  E  E  E  E  E  E  E   
--------------------------|--------------------------|
--------------------------|--------------------------|
--------------------------|--------------------------|
--5--5--5--5--5--5--5--5--|--0--0--0--0--0--0--0--0--|


  E  E  E  E  E  E  E  E     E  E  E  E  E  E  Q                             
--------------------------|-------------------------|-------|-------|-------|
--------------------------|-------------------------|-------|-------|-------|
--------------------------|--7--7--7--7--7--7-------|-------|-------|-------|
--5--5--5--5--5--5--5--5--|--------------------0----|-------|-------|-------|


                  H        Q     Q        Q.     E  Q.     E   
-------|-------|-----------------------|----------------------|
-------|-------|-----------------------|----------------------|
-------|-------|-----------------------|----------------------|
-------|-------|----------------17S----|--5------4--5------4--|


  Q.     E  Q.     E     Q.     E  Q.     E     E  E  E  E  E  E  E  E   
----------------------|----------------------|--------------------------|
----------------------|----------------------|--------------------------|
----------------------|----------------------|--------------------------|
--5------4--5------4--|--5------4--5------4--|--5--5--5--5--5--5--5--5--|


  E  E  Q    H          
----------------------||
----------------------||
----------------------||
--5-------------------||




Duration Legend
---------------
W - whole
H - half
Q - quarter
E - 8th
S - 16th
T - 32nd
X - 64th
. - note dotted
|-n-|  - n-tuplets





Comments


Popular Unicorns tabs & chords
Ghost Mountain Chords
Lets Get Known Chords
Sea Ghost Chords
Tuff Ghost Chords
Clap Tabs
Tuff Ghost Tabs
Emasculate The Masculine Ukulele
Les Os Ukulele
Lets Get Known Ukulele
Tuff Ghost Ukulele


Song lyrics



↑ Back to top | Tablatures and chords are parodies/interpretations of the original songs. You may use it for private study, scholarship, research or language learning purposes only
© 2014 AZChords.com Contact us | Privacy policy | DMCA | Add/correct tabs | Request tabs | Top 50 tabs