» » »

Unearth, One Step Away Tabs (ver.1)

Artists:  A B C D E F G H I J K L M N O P Q R S T U V W X Y Z # 

One Step Away Tabs (ver.1)

Unearth Tabs
Rating:
0/5 (0 votes)
Hard to play? Try these video lessons and learn fast.
                Band- Unearth
Song- One Step Away

Guitar 1
Part 1
 0:00 - 0:20
||-----------------------------||
||-----9-9/8----9-9/8----------||
||-----8-8/7----8-8/7----------||
||-----6-6/5----6-6/5--5-6-----||
||---------------------5-6-3-5-||
||--00-------00------------3-5-||
     ..       ..        . . . .

Part 2
 0:21 - 0:40
|---------------------|-------------------------------|-----------------|
|---3333-4444--------4|-------------------------------|-------4-444-555-|
|-------------7-8-7--7|-8/7-7-7/5-5-5/3-3-3/1-1-1p0-1-|-7-8-7-7-777-888-|
|0--------------------|-------------------------------|-----------------|
|0--------------------|-------------------------------|-----------------|
|0--------------------|-------------------------------|-----------------|

-|-------------------------------|
-|-------4-----------------------|
-|-7-8-7-7--8/7-7-7/5-5-5/3-3-3/1|
-|-------------------------------|
-|-------------------------------|
-|-------------------------------|

Part 3
Gtr.2 plays:
 0:41 - 1:01
||-------------|---------|------------|------------||
||-------------|---------|------------|------------||
||-------------|---------|------------|------------||
||-------------|7777\8888|------------|------------||
||-------------|5555\6666|------------|------------||
||-00-00-000-00|---------|00-00-000-00|00-00-000-00||
   .. .. ... ..           .. .. ... .. .. .. ... ..

Part 4
 1:01 - 1:21
||----------------|---------------------||
||----------------|---------------------||
||----------------|---------------------||
||----------------|---------------------||
||----8-7-8------5|----8-7-10-8-7------5||
||000-------10-0--|000------------10-0--||

repeat Part 3: 1:21 - 1:41

Part 5
1:42 - 2:01
||---------------------------------------------------||
||---------------------------------------------------||
||---------------------------------------------------||
||5------------7-------------------------8--7--------||
||--7-5-7-777----8-7-8-888--8-7-5--------10-8-7h8p7-5||
||--------------------------------8-888--------------||

Part 6
 2:01 - 2:30
||---------------------------------|-------------------------------------||
||---------------------------------|-------------------------------------||
||---------------------------------|-------------------------------------||
||----7-8-----------------5-6-5----|---7-8-----------------5h7p5---------||
||--5------6--6-5-6--6-5-6-------6-|-5------6---5------5-8-------8p7p5---||
||---------------------------------|--------------10-8-------------------||

Part 7
2:31 - 2:50
||--------------------|---------------------||
||--------------------|---------------------||
||--------------------|---------------------||
||-----8-7-8-7-8--555-|-----8-7-8-7-5-8-7---||
||-----6-5-6-5-6--333-|-----6-5-6-5-3-6-5---||
||-000----------------|-000-----------------||

Part 8
2:51 -
|-----------------------|-------------------------------------------
|-----------------------|-------------------------------------------
|-----------------------|-------------------------------------------
|-----------------------|-------------------------------------------
|-----------5h8p5-4h7p4-|-------------------------------------------
|-0000-0000-------------|-------------------------------------------
            

comments powered by Disqus
↑ Back to top | Unearth Tabs for One Step Away. Lyrics for acoustic guitar and electric guitar. Tablatures and chords are parodies/interpretations of the original songs. You may use it for private study, scholarship, research or language learning purposes only