» » »

Unearth, One Step Away Bass tabs (ver.1)

Artists:  A B C D E F G H I J K L M N O P Q R S T U V W X Y Z # 

One Step Away Bass tabs (ver.1)

Unearth Tabs
 Rating:
4/5 (4 votes)
One Step Away lessons Tabs too difficult? Try these video lessons and learn fast
1
                Band- Unearth
Song- One Step Away

Tuning-B,F#,B,E


Intro/Verse
e-----------------------------|
b-----------------------------|
f------11-----11--------------|
b--00------00-----3-3-3-3-----|

Riff1
e----------------|
b----------------|
f--------35------|
b--0***3---0**---|

Breakdown  x?
-------------|---------|
-------------|---------|
-------------|--5*-6*--|
-00-00-000-00|---------|

Riff2       x alot   then do together
e------------------|----------------------|
b------------------|----------------------|
f------8-7-8------5|----8-7-10-8-7------5-|
b--000-------10-0--|000------------10-0---|

Bridge?
e-----------------------------|
b----------------5-6-5--------|
f--66-5-6--6-5-6-------6-53---|
b-----------------------------|

End/solo
e---------------------------------------|
b---------------------------------------|
f-----6-5-6-5-6--333----6-5-6-5-3-6-5---|
b-000---------------000-----------------|


Think i got it all...All parts i didnt list are basically open low B...awesome 
sure if its best tab..but good to play with
            
Submit corrections

comments powered by Disqus
↑ Back to top | Unearth Bass for One Step Away. Lyrics for acoustic guitar and electric guitar. 1 Tablatures and chords are parodies/interpretations of the original songs. You may use it for private study, scholarship, research or language learning purposes only