>
 >
Grave Of Opportunity

Grave Of Opportunity Bass Tabs

Unearth - Grave Of Opportunity chords, tabs, tablatures, lyrics

Guitar lessons | Add/correct | Request | Top 50 tabs Artists:  A B C D E F G H I J K L M N O P Q R S T U V W X Y Z 0-9

Grave Of Opportunity Bass Tabs – Unearth

CD, Sheet music, Poster

Do you like Grave Of Opportunity? Share with your friends now
Bass TabsTabsTabs v2
Tuning; D,A,D,G



  0:00  Intro/chorus 
G|-----------------------------------------------------------------------------|
D|-----------------------------------------------------------------------------|     
A|-----------------------------------------------------------------------------|
D|-4~46x-8~64x-4~46x-00000000x----4~46~-8~64~-4~46~-00000000x------------------|


0:24    Pre-Verse (one)
G|-----------------------------------------------------------------------------|
D|-----------------------------------------------------------------------------|
A|-----------------------------------------------------------------------------|
D|-0x---0x----0~~0~~-----------------------------------------------------------|



  0:35    Verse (one)
G|-----------------------------------------------------------------------------|
D|-----------------------------------------------------------------------------|
A|-----------------------------------------------------------------------------|
D|-00000000000000000000000000000000000000000000000000000000000000000000000-----|



  0:46
G|-----------------------------------------------------------------------------|
D|-----------------------------------------------------------------------------|
A|-----------------------------------------------------------------------------|
D|0000x-0x-0x-000x-0x-0000x--0x-0x-000x-0x-0000x--0x-0x-000x-0x-0000x----------|


G|-----------------------------------------------------------------------------|
D|-----------------------------------------------------------------------------|
A|-----------------------------------------------------------------------------|
D|-0x-0x-000x-0x---------------------------------------------------------------|



  0:59
G|-----------------------------------------------------------------------------|
D|-----------------------------------------------------------------------------|
A|-----------------------------------------------------------------------------|
D|-000000000000000000000000000000000000000000000000000000000000000000000000000-|


  1:10   Chours (one)
G|-----------------------------------------------------------------------------|
D|-----------------------------------------------------------------------------|
A|-----------------------------------------------------------------------------|
D|-4~46~-8~64~-4~46~-00000000x----4~46~-8~64~-4~46~-0000000000~~0~-------------|



  1:54    Break down Intro
G|-----------------------------------------------------------------------------|
D|-----------------------------------------------------------------------------|
A|-----------------------------------------------------------------------------|
D|-00x-00~--00x-04~--00x-00~------00x-046~-------------------------------------|



  2:06    Break down (part one)
G|-----------------------------------------------------------------------------|
D|-----------------------------------------------------------------------------|
A|-----------------------------------------------------------------------------|
D|--000x------------000x------------000x------------000x-----------------------|




  2:19    Break down (Part two)
G|-----------------------------------------------------------------------------|
D|-----------------(Slower-than-the-verses)------------------------------------|
A|-----------------------------------------------------------------------------|
D|-0000000000000000000000000000000000000000000000000000000000000000000000000---|





  2:31    Guitar solo
G|-----------------------------------------------------------------------------|
D|-----------------------------------------------------------------------------|
A|-----------------------------------------------------------------------------|
D|-0x-0x-000x-0x-0000x--0x-0x-000x-0x-0000x--5/0--0x-0x-000x-0x-0000x----------|



G|-----------------------------------------------------------------------------|
D|-----------------------------------------------------------------------------|
A|-----------------------------------------------------------------------------|
D|-0x-0x-000x-0x-0000x--2/0----------------------------------------------------|


  

2:44    Pre-verse (two)
G|-----------------------------------------------------------------------------|
D|-----------------------------------------------------------------------------|
A|-----------------------------------------------------------------------------|
D|0000x-0x-0x-000x-0x-0000x--0x-0x-000x-0x-0000x--0x-0x-000x-0x-0000x----------|



G|-----------------------------------------------------------------------------|
D|-----------------------------------------------------------------------------|
A|-----------------------------------------------------------------------------|
D|-0000x--0x-0x-000x-0x-0000x--------------------------------------------------|




  2:55    Verse (two)
G|-----------------------------------------------------------------------------|
D|-----------------------------------------------------------------------------|
A|-----------------------------------------------------------------------------|
D|-000000000000000000000000000000000000000000000000000000000000000000000000000-|


  3:07    Chours (two)
G|-----------------------------------------------------------------------------|
D|-----------------------------------------------------------------------------|
A|-----------------------------------------------------------------------------|
D|--4~46~-8~64~-4~46~-00000000x------------------------------------------------|

  

3:19    Bridge
G|-----------------------------------------------------------------------------|
D|-----------------------------------------------------------------------------|
A|-----------------------------------------------------------------------------|
D|-4444444466666666888888881010101010101010-44444444666666668888888888888888---|


  3:31   Outro
G|-----------------------------------------------------------------------------|
D|-----------------------------------------------------------------------------|
A|-----------------------------------------------------------------------------|
D|-0~~0~~0~~~~~----------------------------------------------------------------|





Comments


Popular Unearth tabs & chords
My Heart Bleeds No Longer Bass Tabs
The Charm Bass Tabs
Chosen 1 Tabs
Crow Killer Tabs
Endless 1 Tabs
Lie To Purify Tabs
Stronghold Intro Tabs
The Great Dividers (Intro) Tabs
This Glorious Nightmare Tabs
Unstoppable Tabs


Song lyrics



↑ Back to top | Tablatures and chords are parodies/interpretations of the original songs. You may use it for private study, scholarship, research or language learning purposes only
© 2014 AZChords.com Contact us | Privacy policy | DMCA | Add/correct tabs | Request tabs | Top 50 tabs