>
 >
Grave Of Opportunity

Grave Of Opportunity Guitar Tabs

Unearth - Grave Of Opportunity chords, tabs, tablatures, lyrics

Guitar lessons | Add/correct | Request | Top 50 tabs Artists:  A B C D E F G H I J K L M N O P Q R S T U V W X Y Z 0-9

Grave Of Opportunity Guitar Tabs – Unearth

CD, Sheet music, Poster

Do you like Grave Of Opportunity? Share with your friends now
Bass TabsTabsTabs v2
Band   : Unearth
Song   : Grave of Opportunity
Album  : The March

Hey everyone. This song is Definately hard to learn by ear haha.
This is my first tab that i've done so i might have made some mistakes
here and there. I haven't quite learned the solo yet or figured out the
bridge so I'll just give you what i know so far of it and pretty soon i
should have the solo finished. But it's a fun song to play. Any questions
or comments are more than welcome. Hope everyone enjoys :p


Tuning 7 string standard. (B,E,A,D,G,B,E) This song doesnt use the top string
though so if you don't have a seven string you can just tune it down to (B,E,A,D,G,B)

Intro/ Chorus

I'm not sure about the rhythm (Guitar II) to this. I think its right but I'm
not sure. While i am making the tab i just hurried and put the chords
together but I'm not 100%. Let me know what you guys think.

Repeat 2x. Rhythem Let guitar ring 2nd time

    Gtr I
E|-----------------------------------------------------|
B|-----------------------------------------------------|
G|-----------------------------------------------------|
D|--9----9h11h12--11-9-----9-9-11-11h12p11p9-9h11p9----|
A|----12---------------12--------------------------12--|
E|-----------------------------------------------------|
B|-----------------------------------------------------|
 |  Gtr II
E|-----------------------------------------------------|
B|-----------------------------------------------------|
G|-----------------------------------------------------|
D|--7--------------7-9-9-------------------------------|
A|--7--------------7-9-9-------------------------------|
E|--5--------------5-7-7-------------------------------|
B|-----------------------------------------------------|


    Gtr I
E|----------------------------------------------------|
B|----------------------------------------------------|
G|----------------------11~--9------------------------|
D|--9----9h11h12---11-9--------12-11---12-11h12p11p9--|
A|----12----------------------------------------------|
D|----------------------------------------------------|
B|----------------------------------------------------|
 |  Gtr II
E|----------------------------------------------------|
B|----------------------------------------------------|
G|----------------------------------------------------|
D|--9---------------9-7-7-----------------------------|
A|--9---------------9-7-7-----------------------------|
E|--7---------------7-5-5-----------------------------|
B|----------------------------------------------------|


    Gtr I
E|-----------------------------------------------------|
B|-----------------------------------------------------|
G|-----------------------------------------------------|
D|--9----9h11h12--11-9-----9-9-11-11h12p11p9-9h11p9----|
A|----12---------------12--------------------------12--|
E|-----------------------------------------------------|
B|-----------------------------------------------------|
 |  Gtr II
E|-----------------------------------------------------|
B|-----------------------------------------------------|
G|-----------------------------------------------------|
D|--7-------------7-7-9--------------------------------|
A|--7-------------7-7-9--------------------------------|
E|--5-------------5-5-7--------------------------------|
B|-----------------------------------------------------|


    Gtr I
E|-------------------------------------------------|
B|-------------------------------------------------|
G|---------------------/9~-------------------------|
D|--9----9h11h12--11-9-----12-11-9--11-9h11p9(p7)--|
A|----12-------------------------------------------|
E|-------------------------------------------------|
B|-------------------------------------------------|
 |  Gtr II
E|-------------------------------------------------|
B|-------------------------------------------------|
G|-------------------------------------------------|
D|-------------------------------------------------|
A|--2-2-2-2-2-2-2-2-2-2-2-2-2-2-2-2-2-2-2-2-2-2----|
E|--2-2-2-2-2-2-2-2-2-2-2-2-2-2-2-2-2-2-2-2-2-2----|
B|--0-0-0-0-0-0-0-0-0-0-0-0-0-0-0-0-0-0-0-0-0-0----|
      . . . . . . . . . . . . . . . . .

Verse

E|-------------------------------------------------------|
B|-------------------------------------------------------|
G|-------------------------------------------------------|
D|-------------------------------------------------------|
A|---------------------------------------7h8p7p5---------|
E|-------7----7h8p7p5----7-----7h8p7p5----------8p7p5h7--|
B|--0000---000--------00---000---------00----------------|
    ....   ...        ..   ...         ..

E|-------------------------------------------------------|
B|-------------------------------------------------------|
G|-------------------------------------------------------|
D|-------------------------------------------------------|
A|-------------------------------------------------------|
E|-------7----7h8p7p5----7-----7h8p7p5----5h7p5----------|
B|--0000---000--------00---000---------00-------8p7p5h7--|
    ....   ...        ..   ...         ..


Breakdown type thing in verse  2x

E|--------------------------|-------------------------------------|
B|--------------------------|-------------------------------------|
G|--------------------------|-------------------------------------|
D|--------------------------|-------------------------------------|
A|--222222---2---2222---2---|--222222---2---2222--7h8p7p5---------|
E|--222222---2---2222---2---|--222222---2---2222---------8p7p5h7--|
B|--000000---0---0000---0---|--000000---0---0000------------------|
    ......   .   ....  .       ......   .   ....

Interlude
Might be wrong but it's pretty close i think. 2x clean then lead does 2x distorted. 
does once then (Fig 1.) 4 times

E|--------------------------------------|
B|--------------------------------------|
G|--------------------------------------|
D|-------------------9------7-----------|
A|------9---10-9---9---10-----9---7-10--|
E|----7---7------7--------7-----7-------|
B|--0-----------------------------------|

E|--------------------------------------|
B|--------------------------------------|
G|--------------------------------------|
D|--------------------------------------|
A|------9---10-9---9-5-----7------------|
E|----7---7------7-----7-----9---9-10---|
B|--0--------------------0-----0--------|

E|--------------------------------------|
B|--------------------------------------|
G|--------------------------------------|
D|-------------------9------7-----------|
A|------9---10-9---9---10-----9---7-10--|
E|----7---7------7--------7-----7-------|
B|--0-----------------------------------|

E|--------------------------------------|
B|--------------------------------------|
G|--------------------------------------|
D|--------------------------------------|
A|------9---10-9---9-----5------7-------|
E|----7---7------7-----7------9---9-----|
B|--0----------------8-----10-------10--|
 |
 |  Gtr II
E|--------------------------------------|
B|--------------------------------------|
G|--/4-4-4-4-4-4-4-4-/7-7-7-7-/9-9-9-9--|
D|--/x-x-x-x-x-x-x-x-/x-x-x-x-/x-x-x-x--|
A|--/2-2-2-2-2-2-2-2-/5-5-5-5-/7-7-7-7--|
E|--------------------------------------|
B|--------------------------------------|

Solo Coming soon!!
The Rhythem to the solo is just the breakdown.

Outro

E|--------------------------------|
B|--------------------------------|
G|--------------------------------|
D|--9----11-12----11-9-----9-9~~--|
A|----12---------------12---------|
E|--------------------------------|
B|--------------------------------|

Order: Chorus, Verse, Breakdown, Verse, Chorus, Interlude, Solo, Breakdown, Verse, Chorus.


Legend:
~ = Either vibrato or just let ring
p = pull off
h = hammer on
/ = slide
x = mute string
. = palm mute


Any comments or mistakes found are more than welcome. If you have any questions feel 
to ask. I will get back to you.

By 1manbandtan





Comments


Popular Unearth tabs & chords
Sanctity Of Brothers Drum Tabs
Black Hearts Now Reign 1 Tabs
Giles Tabs
Giles Intro Tabs
Internal War Tabs
My Will Be Done Tabs
Predetermined Sky Tabs
The Great Dividers Tabs
The Great Dividers (Intro) Tabs
The Great Dividers 2 Tabs


Song lyrics



↑ Back to top | Tablatures and chords are parodies/interpretations of the original songs. You may use it for private study, scholarship, research or language learning purposes only
© 2014 AZChords.com Contact us | Privacy policy | DMCA | Add/correct tabs | Request tabs | Top 50 tabs