>
 >
Grave Of Opportunity 1

Grave Of Opportunity 1 Guitar Tabs

Unearth - Grave Of Opportunity 1 chords, tabs, tablatures, lyrics

Guitar lessons | Add/correct | Request | Top 50 tabs Artists:  A B C D E F G H I J K L M N O P Q R S T U V W X Y Z 0-9

Grave Of Opportunity 1 Guitar Tabs – Unearth

CD, Sheet music, Poster

Do you like Grave Of Opportunity 1? Share with your friends now
Bass TabsTabsTabs v2
My first tab, Enjoy. 

<=Hammer on
>=Pull off
/=Neck slide up
\=Neck slide down
"=Tremolo picking
*=Pinch harmonic


INTRO/CHORUS

Guitar 1: (I think this is pretty close)

D|-------------------------------------------------------------------|
A|----------------------5-5<6>5--------------------------------------|
F|--7---7-10-9-5-5--5-7---------5<7>5>4------------------------------|
C|----0---------------------------------5----------------------------|
G|-------------------------------------------------------------------|
C|-------------------------------------------------------------------|


D|-------------------------------------------------------------------|
A|-------------------------------------------------------------------|
F|--7---7-10-9-5-10<12-9-9-10-9<10-----------------------------------|
C|----0----------------------------10--------------------------------|
G|-------------------------------------------------------------------|
C|-------------------------------------------------------------------|


Guitar 2:

D|------------------------------------|
A|------------------------------------|
F|------------------------------------|
C|-8--10-10-10----12--10-10-10--------|
G|-8--10-10-10----12--10-10-10--------|
C|-8--10-10-10----12--10-10-10--------|


D|----------------------------------------|
A|----------------------------------------|
F|----------------------------------------|
C|-8--10-10-10----------------------------|
G|-8--10-10-10---\---0000000000000000-----|
C|-8--10-10-10---\---0000000000000000-----|



BRIDGE


Guitar 1:

D|-----------------------------------------------------------------|
A|-----------------------------------------------------------------|
F|-----------------------------------------------------------------|
C|-----------------------------------------------------------------|
G|------5------5<6>5>3-----5----5<6>5>3----5<6>5>3<5>2>0<2---------|
C|-0000---000----------00----00---------00-------------------------|


D|-----------------------------------------------------------------|
A|-----------------------------------------------------------------|
F|-----------------------------------------------------------------|
C|-----------------------------------------------------------------|
G|------5-----5<6>5>3----5----5<6>5>3----5<6>5---------------------|
C|-0000---000---------00---00---------00-------5<6>5>3<5>2>0<2-----|


Guitar 2:

D|----------|
A|----------|
F|----------|
C|----0-----|
G|----0-----|
C|----0-----|


VERSE 1:

Both guitars:

D|-----------------------------------------------------------------|
A|-----------------------------------------------------------------|
F|-----------------------------------------------------------------|
C|-----------------------------------------------------------------|
G|------5------5<6>5>3-----5----5<6>5>3----5<6>5>3<5>2>0<2---------|
C|-0000---000----------00----00---------00-------------------------|


D|-----------------------------------------------------------------|
A|-----------------------------------------------------------------|
F|-----------------------------------------------------------------|
C|-----------------------------------------------------------------|
G|------5-----5<6>5>3----5----5<6>5>3----5<6>5---------------------|
C|-0000---000---------00---00---------00-------5<6>5>3<5>2>0<2-----|


VERSE 2:

Guitar 1:

D|-------------------------------------------------------------|
A|-------------------------------------------------------------|
F|-------------------------------------------------------------|
C|-000000-0-0-0000-0-------------------------------------------|
G|-000000-0-0-0000-0-x2----5<6>5>3<5>2>0<2---------------------|
C|-000000-0-0-0000-0-------------------------------------------|


Guitar 2:

D|-------------------------------------------------------------|
A|-------------------------------------------------------------|
F|-------------------------------------------------------------|
C|-000000-0-0-0000-0-------------------------------------------|
G|-000000-0-0-0000-0-x2----------------------------------------|
C|-000000-0-0-0000-0-------5<6>5>3<5>2>0<2---------------------|



(REPEAT VERSE 1)

(CHORUS)


Bridge:

Guitar 1:

D|--------------------------------------|
A|--------------------------------------|
F|-----------------7--------------------|
C|-----7---8>7---7---7---8>7---5<7------|
G|---0---0-------------0----------------|
C|-0-----------0-------------0----------|


D|--------------------------------------|
A|--------------------------------------|
F|--------------------------------------|
C|-----7---8>7---7----------------------|
G|---0---0---------8>7---10>7---7<8-----|
C|-0-----------0-------0------0---------|


D|--------------------------------------|
A|--------------------------------------|
F|-----------------7--------------------|
C|-----7---8>7---7---7---8>7---5<7------|
G|---0---0-------------0----------------|
C|-0-----------0-------------0----------|


D|--------------------------------------|
A|--------------------------------------|
F|--------------------------------------|
C|-----7---8>7---7----------------------|
G|---0---0-------------8-----10>8-------|
C|-0-----------0---7<8---0-8------0-----|


Guitar 2:

D|--------------------------------------|
A|--------------------------------------|
F|--------------------------------------|
C|--0--------------0-----------8--------|
G|--0------00--0---0---00--0---8--------|
C|--0------00--0---0---00--0---8--------|


BREAKDOWN:


Both guitars:

D|-----------------------------------------------|
A|-----------------------------------------------|
F|----------------7------------------------------|
C|----7---8>7---7---7---8>7---5<7----------------|
G|-00---0-----0-------0-----0--------------------|
C|-00---0-----0-------0-----0--------------------|

D|-----------------------------------------------|
A|-----------------------------------------------|
F|-----------------------------------------------|
C|----7---8>7---7--------------------------------|
G|-00---0-----0---8>7-0--10>7-0-7<8--------------|
C|-00---0-----0-------0-------0------------------|

D|-----------------------------------------------|
A|-----------------------------------------------|
F|----------------7------------------------------|
C|----7---8>7---7---7---8>7---5<7----------------|
G|-00---0-----0-------0-----0--------------------|
C|-00---0-----0-------0-----0--------------------|

D|-----------------------------------------------|
A|-----------------------------------------------|
F|-----------------------------------------------|
C|----7---8>7---7--------------------------------|
G|-00---0-----0-------8-----10-7-----------------|
C|-00---0-----0---7<8---0-8------0---------------|


BRIDGE TO SOLO:

Guitar 1:

D|----------------------------------------|
A|----------------------------------------|
F|-77777777--10101010--12-12-12-12--------|
C|----------------------------------------|
G|-55555555--8-8-8-8---10-10-10-10--------|
C|----------------------------------------|

D|----------------------------------------|
A|----------------------------------------|
F|-77777777--14-14-14-14---17-17-17-17----|
C|----------------------------------------|
G|-55555555--12-12-12-12---15-15-15-15----|
C|----------------------------------------|

D|----------------------------------------|
A|----------------------------------------|
F|-77777777--10101010--12-12-12-12--------|
C|----------------------------------------|
G|-55555555--8-8-8-8---10-10-10-10--------|
C|----------------------------------------|

D|----------------------------------------|
A|----------------------------------------|
F|-77777777--3333--2222-------------------|
C|----------------------------------------|
G|-55555555--1111--0000-------------------|
C|----------------------------------------|


Guitar 2:


D|----------------------------|
A|----------------------------|
F|----------------------------|
C|-0---3---5---0---5---10-----|
G|-0---3---5---0---5---10-----|
C|-0---3---5---0---5---10-----|


D|-------------------------------------|
A|-------------------------------------|
F|-------------------------------------|
C|-0---3---5---0-----------------------|
G|-0---3---5---0------8-------10>7-----|
C|-0---3---5---0--7<8---0--8--------0--|



SOLO:


Guitar 1:

D|-----10------8<10-----10----*9*---------------------------|
A|-10------10--------10----10-----10>9-7-7<9>7<9>7----------|
F|-------------------------------------------------7>5------|
C|-----------------------------------------------------5----|
G|----------------------------------------------------------|
C|----------------------------------------------------------|

D|--------------------------------------------|
A|--------------9(bend)-----------------------|
F|----5<7-7-9>7-9(bend)--9-9-7-7-0<5----------|
C|--5-----------------------------------------|
G|--------------------------------------------|
C|--------------------------------------------|

e|-----------------------------------------------------|
B|-----------------------------------------------------|
G|-------------14--------------------------------------|
D|-15>12<14>12----12--x2-------------------------------|
A|-----------------------------------------------------|
E|-----------------------------------------------------|

e|-------------------------------------------------------------------|
B|-------------------13<15-------------------------------------------|
G|-14-------12<14<15-------------12<14<15-20(bend)-19>17<19(bend)----|
D|----12<15----------------12<15-------------------------------------|
A|-------------------------------------------------------------------|
E|-------------------------------------------------------------------|


Guitar 2:

e|-----------------------------------------------------|
B|-----------------------------------------------------|
G|-----------------------------------------------------|
D|-000000-0-0-0000-0---000000-0-0-0000--\--------------|
A|-000000-0-0-0000-0---000000-0-0-0000--\--------------|
E|-000000-0-0-0000-0---000000-0-0-0000--\--------------|


(VERSE 1)

(CHORUS)

OUTRO pt 1: 

Guitar 1:

D|-------------------------------------------------------------------|
A|----------------------5-5<6>5--------------------------------------|
F|--7---7-10-9-5-5--5-7---------5<7>5>4------------------------------|
C|----0---------------------------------5----------------------------|
G|-------------------------------------------------------------------|
C|-------------------------------------------------------------------|


D|-------------------------------------------------------------------|
A|-------------------------------------------------------------------|
F|--7---7-10-9-5-10<12-9-9-10-9<10-----------------------------------|
C|----0----------------------------10--------------------------------|
G|-------------------------------------------------------------------|
C|-------------------------------------------------------------------|

Guitar 2:

e|-----------------------------------------------------------------|
B|-----------------------------------------------------------------|
G|-----------------------------------------------------------------|
D|-88888888-1010101010101010-1212121212121212-1515151515151515-----|
A|-88888888-1010101010101010-1212121212121212-1515151515151515-----|
E|-88888888-1010101010101010-1212121212121212-1515151515151515-----|


OUTRO pt. 2:

Guitar 1:

D|---------------------------------|
A|---------------------------------|
F|--7---7<10-9-5-5<7-7-------------|
C|----0----------------------------|
G|---------------------------------|
C|---------------------------------|


Guitar 2:

D|---------|
A|---------|
F|---------|
C|----0----|
G|----0----|
C|----0----|





Comments


Popular Unearth tabs & chords
My Heart Bleeds No Longer 3 Bass Tabs
One Step Away 2 Bass Tabs
Zombie Autopilot Bass Tabs
Bloodlust Of The Human Condition 1 Tabs
Endless Tabs
Grave Of Opportunity Intro Tabs
Only The People Tabs
Only The People 2 Tabs
This Glorious Nightmare 1 Tabs
This Lying World Tabs


Song lyrics



↑ Back to top | Tablatures and chords are parodies/interpretations of the original songs. You may use it for private study, scholarship, research or language learning purposes only
© 2014 AZChords.com Contact us | Privacy policy | DMCA | Add/correct tabs | Request tabs | Top 50 tabs