» » »

Giles Tabs (ver.2)

Artists:  A B C D E F G H I J K L M N O P Q R S T U V W X Y Z # 

Giles Tabs (ver.2)

Unearth
Rating:
4/5 (6 votes)

Hard to play? Try these video lessons and learn fast.
                (Intro)
Hey guys thanks for taking the time to check out my tab. I spent a little bit of time
to figure out how to play this song after seeing how terribly wrong all the tabs on here
Its only a start, I know, but hopefully it will help some else to get the rest. The 
of this song is what makes it  killer when trying to figure it the hell out, but im
sure that what I have here is damn near perfect! And like everybody else this is my 
tab! (my others got turned down)  )=

-PM for any add-ons on corrections.

Artist- Unearth
Song- Giles

Tuning- 7 string standard (low to high: BEADGBE)

Intro Riff(Both Guitars)        Main Riff(both)
 YEAH!!
E|------|--------------| E|--------------------------------------------|
B|------|--------------| B|--------------------------------------------|
G|------|--------------| G|--------------------------------------------|
D|------|--9/-7/-5/-10-| D|--------------------------------------------|
A|-3~---|--x--x--x--x--| A|-----------------------------------------7p5|
E|-3~---|--7/-5/-3/-8--| E|-8p7---7---7h10-8p7---7---7h8p7---7---7h8---|
B|-1~---|--------------| B|-----0---0----------0---0-------0---0-------|

(cont.)
E|------------------------------------------------------|
B|------------------------------------------------------|
G|------------------------------------------------------|
D|------------------------------------------------------|
A|----------------------------------------------5-------|
E|-5-8p7--7---7h10-8p7--7---7h8-5--5--5-5-5-7-8---8-7-8-|
B|------0---0---------0---0------0----------------------| x2

(Pre-Verse Riff)(gt. 1)
E|-------------|---------------|------------|-----------|
B|-------------|---------------|------------|-----------|
G|-------------|---------------|------------|-----------|
D|-------------|---------------|------------|-----------|
A|-2--5--7--10-|-2--5--7--10/-5|-2--5--7--10|-2--5--7--3|
E|-2--5--7--10-|-2--5--7--10/-5|-2--5--7--10|-2--5--7--3|
B|-0--3--5--8--|-0--3--5--8-/-3|-0--3--5--8-|-0--3--5--1|

Backing Lead(Gt. 2)
E|----------------------------------------------------------------|
B|----------------------------------------------------------------|
G|----------------------------------------------------------------|
D|----------------------------------------------------------------|
A|-----9-10p9p7---------9-10p9p7----------9-10p9p7----------9-9h12|
E|-777----------10-10-10---------12-12-12----------10-10-10-------|
B|----------------------------------------------------------------| x2
(Verse)
Same as main riff played x2
(Chorus)
Same as Pre-Verse played x1
(Breakdown)
Pretty obvious palm muted opens, but I dont know those sweeping parts, so no point in
them.

Thats basically all there is to the song, it seems a lot harder than that, but really
only hard thing will be playing the riffs in time and learning those damn sweeps! Thanks
for checking it out and PLEASE RATE!
            
Hard to play? Try these video lessons and learn fast. | Correct




comments powered by Disqus
↑ Back to top | Tablatures and chords are parodies/interpretations of the original songs. You may use it for private study, scholarship, research or language learning purposes only