>
 >
Giles

Giles Guitar Tabs

Unearth - Giles chords, tabs, tablatures, lyrics

Guitar lessons | Add/correct | Request | Top 50 tabs Artists:  A B C D E F G H I J K L M N O P Q R S T U V W X Y Z 0-9

Giles Guitar Tabs – Unearth

CD, Sheet music, Poster

Do you like Giles? Share with your friends now
Tabs
#------------------------------------------------------------------------------##

                                      GILES
                             As recorded by Unearth


Gtr I (B E A D G B E) - 'Rhythm 1/Lead'
Gtr II (B E A D G B E) - 'Rhythm 2'
Gtr III (B E A D G B E) - 'Lead 2'

  Q=124
 4/4
  Gtrs I, II
  H    E E E E
|--------------|
|--------------|
|--------------|
|------7-----5-|
|-3----5-7-5-3-|
|-3------5-3---|
|-1------------|


   4/4
        PM  PM|          PM  PM|         PM|   PM|     PM|     PM|
    S S S S S S S  S S S S S S S S S   S S S S S S S S S S S S S S S S
||-----------------------------------|---------------------------------|
||-----------------------------------|---------------------------------|
||o----------------------------------|---------------------------------|
||-----------------------------------|---------------------------------|
||o----------------------------------|---------------------7-5---------|
||--8-7---7-----7-10-8-7---7-----7-8-|-7-----7-----7-8-------------5-8-|
||------0---0-0----------0---0-0-----|---0-0---0-0-----0-0-----0-0-----|


      PM  PM|          PM  PM|         PM|   PM--|
  S S S S S S S  S S S S S S S S S   S S S S S S S S S  S S S  S S S  S
|----------------------------------|-------------------------------------||
|----------------------------------|-------------------------------------||
|----------------------------------|------------------------------------o||
|----------------------------------|-------------------------------------||
|----------------------------------|------------------------------------o||
|-8-7---7-----7-10-8-7---7-----7-8-|-5-----5-------8------7-8-10-8-7-----||
|-----0---0-0----------0---0-0-----|---0-0---0-0-0---8-10------------10--||


  Gtr I
  PM--|   PM        PM---|     PM      PM-
  S S S S S  S S S  S  S  S S  S  S S  S
|----------------------------------------|
|----------------------------------------|
|----------------------------------------|
|----------------------------------------|
|-------9---10-9-7----------9----10-9----|
|-7-7-7---7--------10-10-10---10------12-|
|----------------------------------------|
|
| Gtr II
| H                 H
|----------------------------------------|
|----------------------------------------|
|----------------------------------------|
|----------------------------------------|
|-2-----------------5--------------------|
|-2-----------------5--------------------|
|-0-----------------3--------------------|


 -------|      PM       PM------|      PM|
   S  S  S  S  S  S  S  S  S  S  S  S  S  S  S  S
|-------------------------------------------------|
|-------------------------------------------------|
|-------------------------------------------------|
|-------------------------------------------------|
|----------10----12-10-------------12-------12-14-|
|-12-12-12----12-------12-14-14-14----14-14-------|
|-------------------------------------------------|
|
|  H                       Q           Q
|-------------------------------------------------|
|-------------------------------------------------|
|-------------------------------------------------|
|--------------------------5----------------------|
|--7-----------------------5-----------5----------|
|--7-----------------------3-----------5----------|
|--5-----------------------------------3----------|


  PM--|   PM        PM---|     PM      PM-
  S S S S S  S S S  S  S  S S  S  S S  S
|----------------------------------------|
|----------------------------------------|
|----------------------------------------|
|----------------------------------------|
|-------9---10-9-7----------9----10-9----|
|-7-7-7---7--------10-10-10---10------12-|
|----------------------------------------|
|
| H                 H
|----------------------------------------|
|----------------------------------------|
|----------------------------------------|
|----------------------------------------|
|-2-----------------5--------------------|
|-2-----------------5--------------------|
|-0-----------------3--------------------|


 -------|      PM       PM------|      PM|
   S  S  S  S  S  S  S  S  S  S  S  S  S  S  S  S
|-------------------------------------------------|
|-------------------------------------------------|
|-------------------------------------------------|
|-------------------------------------------------|
|----------10----12-10-------------12-------12-14-|
|-12-12-12----12-------12-14-14-14----14-14-------|
|-------------------------------------------------|
|
|  H                       H
|-------------------------------------------------|
|-------------------------------------------------|
|-------------------------------------------------|
|--------------------------5----------------------|
|--7-----------------------5----------------------|
|--7-----------------------3----------------------|
|--5----------------------------------------------|


  Gtrs I, II
  PM              PM  PM|         PM|   PM|     PM|     PM|
  S Q  S S  S S S S S S S S S   S S S S S S S S S S S S S S S S
|-----------------------------|----------------------------------|
|-----------------------------|----------------------------------|
|-----------------------------|----------------------------------|
|-----------------------------|----------------------------------|
|-2---------------------------|---------------------7-5----------|
|-2------7-10-8-7---7-----7-8-|-7-----7-----7-8-------------5-8--|
|-0---------------0---0-0-----|---0-0---0-0-----0-0-----0-0------|


      PM  PM|          PM  PM|         PM|   PM--|
  S S S S S S S  S S S S S S S S S   S S S S S S S S S  S S S  S S S  S
|----------------------------------|------------------------------------|
|----------------------------------|------------------------------------|
|----------------------------------|------------------------------------|
|----------------------------------|------------------------------------|
|----------------------------------|------------------------------------|
|-8-7---7-----7-10-8-7---7-----7-8-|-5-----5-------8------7-8-10-8-7----|
|-----0---0-0----------0---0-0-----|---0-0---0-0-0---8-10------------10-|


      PM  PM|          PM  PM|         PM|   PM|     PM|     PM|
  S S S S S S S  S S S S S S S S S   S S S S S S S S S S S S S S S S
|----------------------------------|---------------------------------|
|----------------------------------|---------------------------------|
|----------------------------------|---------------------------------|
|----------------------------------|---------------------------------|
|----------------------------------|---------------------7-5---------|
|-8-7---7-----7-10-8-7---7-----7-8-|-7-----7-----7-8-------------5-8-|
|-----0---0-0----------0---0-0-----|---0-0---0-0-----0-0-----0-0-----|


      PM  PM|          PM  PM|         PM|   PM--|
  S S S S S S S  S S S S S S S S S   S S S S S S S S S  S S S  S S S  S
|----------------------------------|------------------------------------|
|----------------------------------|------------------------------------|
|----------------------------------|------------------------------------|
|----------------------------------|------------------------------------|
|----------------------------------|------------------------------------|
|-8-7---7-----7-10-8-7---7-----7-8-|-5-----5-------8------7-8-10-8-7----|
|-----0---0-0----------0---0-0-----|---0-0---0-0-0---8-10------------10-|


  Gtr I
  PM--|   PM        PM---|     PM      PM-
  S S S S S  S S S  S  S  S S  S  S S  S
|----------------------------------------|
|----------------------------------------|
|----------------------------------------|
|----------------------------------------|
|-------9---10-9-7----------9----10-9----|
|-7-7-7---7--------10-10-10---10------12-|
|----------------------------------------|
|
| Gtr II
| H                 H
|----------------------------------------|
|----------------------------------------|
|----------------------------------------|
|----------------------------------------|
|-2-----------------5--------------------|
|-2-----------------5--------------------|
|-0-----------------3--------------------|


 -------|      PM       PM------|      PM|
   S  S  S  S  S  S  S  S  S  S  S  S  S  S  S  S
|-------------------------------------------------|
|-------------------------------------------------|
|-------------------------------------------------|
|-------------------------------------------------|
|----------10----12-10-------------12-------12-14-|
|-12-12-12----12-------12-14-14-14----14-14-------|
|-------------------------------------------------|
|
|  H                       Q           Q
|-------------------------------------------------|
|-------------------------------------------------|
|-------------------------------------------------|
|--------------------------5----------------------|
|--7-----------------------5-----------5----------|
|--7-----------------------3-----------5----------|
|--5-----------------------------------3----------|


  PM--|   PM        PM---|     PM      PM-
  S S S S S  S S S  S  S  S S  S  S S  S
|----------------------------------------|
|----------------------------------------|
|----------------------------------------|
|----------------------------------------|
|-------9---10-9-7----------9----10-9----|
|-7-7-7---7--------10-10-10---10------12-|
|----------------------------------------|
|
| H                 H
|----------------------------------------|
|----------------------------------------|
|----------------------------------------|
|----------------------------------------|
|-2-----------------5--------------------|
|-2-----------------5--------------------|
|-0-----------------3--------------------|


 -------|      PM       PM------|      PM|
   S  S  S  S  S  S  S  S  S  S  S  S  S  S  S  S
|-------------------------------------------------|
|-------------------------------------------------|
|-------------------------------------------------|
|-------------------------------------------------|
|----------10----12-10-------------12-------12-14-|
|-12-12-12----12-------12-14-14-14----14-14-------|
|-------------------------------------------------|
|
|  H                       H
|-------------------------------------------------|
|-------------------------------------------------|
|-------------------------------------------------|
|--------------------------5----------------------|
|--7-----------------------5----------------------|
|--7-----------------------3----------------------|
|--5----------------------------------------------|


  Gtr III
  S S S S S  S S S  S  S  S S  S  S S  S
|----------------------------------------|
|----------------------------------------|
|----------------------------------------|
|-------7----9-7------------7-----9-7----|
|-5-5-5---5------9--9--9--9----9-------9-|
|----------------------------------------|
|----------------------------------------|
|
| Gtr I
| PM--|   PM        PM---|     PM      PM-
| S S S S S  S S S  S  S  S S  S  S S  S
|----------------------------------------|
|----------------------------------------|
|----------------------------------------|
|----------------------------------------|
|-------9---10-9-7----------9----10-9----|
|-7-7-7---7--------10-10-10---10------12-|
|----------------------------------------|
|
| Gtr II
| H                 H
|----------------------------------------|
|----------------------------------------|
|----------------------------------------|
|-9-----------------7--------------------|
|-9-----------------7--------------------|
|-7-----------------5--------------------|
|-0--------------------------------------|


   S  S  S  S  S  S  S  S  S  S  S  S  S  S  S  S
|-------------------------------------------------|
|-------------------------------------------------|
|-------------------------------------------------|
|-----------9----10--9-------------10-------10-12-|
|-10-10-10----10-------12-12-12-12----12-12-------|
|-------------------------------------------------|
|-------------------------------------------------|
|
|-------|      PM       PM------|      PM|
|  S  S  S  S  S  S  S  S  S  S  S  S  S  S  S  S
|-------------------------------------------------|
|-------------------------------------------------|
|-------------------------------------------------|
|-------------------------------------------------|
|----------10----12-10-------------12-------12-14-|
|-12-12-12----12-------12-14-14-14----14-14-------|
|-------------------------------------------------|
|
|  H                       H
|-------------------------------------------------|
|-------------------------------------------------|
|-------------------------------------------------|
|--9-----------------------7----------------------|
|-10-----------------------9----------------------|
|-10-----------------------9----------------------|
|--8-----------------------7----------------------|


  S S S S S  S S S  S  S  S S  S  S S  S
|----------------------------------------|
|----------------------------------------|
|----------------------------------------|
|-------7----9-7------------7-----9-7----|
|-5-5-5---5------9--9--9--9----9-------9-|
|----------------------------------------|
|----------------------------------------|
|
| PM--|   PM        PM---|     PM      PM-
| S S S S S  S S S  S  S  S S  S  S S  S
|----------------------------------------|
|----------------------------------------|
|----------------------------------------|
|----------------------------------------|
|-------9---10-9-7----------9----10-9----|
|-7-7-7---7--------10-10-10---10------12-|
|----------------------------------------|
|
| H                 H
|----------------------------------------|
|----------------------------------------|
|----------------------------------------|
|-0-----------------4--------------------|
|-2-----------------5--------------------|
|-2-----------------5--------------------|
|-0-----------------3--------------------|


   S  S  S  S  S  S  S  S  S   S  S  S  S  S  S  S
|--------------------------------------------------|
|--------------------------------------------------|
|--------------------------------------------------|
|-----------9----10--9--------------10-------10-12-|
|-10-10-10----10-------12-12--12-12----12-12-------|
|--------------------------------------------------|
|--------------------------------------------------|
|
|-------|      PM       PM-------|      PM|
|  S  S  S  S  S  S  S  S  S   S  S  S  S  S  S  S
|--------------------------------------------------|
|--------------------------------------------------|
|--------------------------------------------------|
|--------------------------------------------------|
|----------10----12-10--------------12-------12-14-|
|-12-12-12----12-------12-14--14-14----14-14-------|
|--------------------------------------------------|
|
|                          ~~~
|  H                       H
|--------------------------------------------------|
|--------------------------------------------------|
|--------------------------------------------------|
|--5-----------------------------------------------|
|--7-----------------------------------------------|
|--7-----------------------------------------------|
|--5----------------------[1]----------------------|


    PM------------------|       PM----|   PM--|   PM|
    S S S E E E S S S S E S   S S S S E S E S E S E S
||--------------------------|--------------------------|
||--------------------------|--------------------------|
||o-------------------------|--------------------------|
||--------------------------|--------------------------|
||o-------------------------|--------------------------|
||--3-3-3-3-3-3-3-3-3-3-3---|---3-3-3-3---3-3-3---3-3--|
||--1-1-1-1-1-1-1-1-1-1-1---|---1-1-1-1---1-1-1---1-1--|


  PM----------------------------|
                                   |--3--|
  S S S S S S +S  S +S  S S S S S  S  S  S
|---------------------------------------10-|
|------------------------------------12----|
|---------------------------------11-------|
|------------------------------------------|
|------------------------------------------|
|-3-3-3-3-3-3-(3)-3-(3)-3-3-3-3-3----------|
|-1-1-1-1-1-1-(1)-1-(1)-1-1-1-1-1----------|


                                                    ~~~~~~
   |------6------|  |----6-----|  |----6----| |---6----|
   S  S  S  S  S S  S S  S S S S  S S S S S S S S S S +E
|-14-10----------9-12-9--------7-10-7-------6-9-6----------||
|-------12----10--------10---8--------8---7-------7--------||
|----------11--------------9------------7-----------6-(6)-o||
|----------------------------------------------------------||
|---------------------------------------------------------o||
|----------------------------------------------------------||
|----------------------------------------------------------||


        PM  PM|          PM  PM|         PM|   PM|     PM|     PM|
    S S S S S S S  S S S S S S S S S   S S S S S S S S S S S S S S S S
||-----------------------------------|----------------------------------|
||-----------------------------------|----------------------------------|
||o----------------------------------|----------------------------------|
||-----------------------------------|----------------------------------|
||o----------------------------------|---------------------7-5----------|
||--8-7---7-----7-10-8-7---7-----7-8-|-7-----7-----7-8-------------5-8--|
||------0---0-0----------0---0-0-----|---0-0---0-0-----0-0-----0-0------|


      PM  PM|          PM  PM|         PM|   PM--|
  S S S S S S S  S S S S S S S S S   S S S S S S S S S  S S S  S S S  S
|----------------------------------|-------------------------------------||
|----------------------------------|-------------------------------------||
|----------------------------------|------------------------------------o||
|----------------------------------|-------------------------------------||
|----------------------------------|------------------------------------o||
|-8-7---7-----7-10-8-7---7-----7-8-|-5-----5-------8------7-8-10-8-7-----||
|-----0---0-0----------0---0-0-----|---0-0---0-0-0---8-10------------10--||


    PM------------------|       PM----|   PM--|   PM|
    S S S E E E S S S S E S   S S S S E S E S E S E S
||--------------------------|--------------------------|
||--------------------------|--------------------------|
||o-------------------------|--------------------------|
||--------------------------|--------------------------|
||o-------------------------|--------------------------|
||--3-3-3-3-3-3-3-3-3-3-3---|---3-3-3-3---3-3-3---3-3--|
||--1-1-1-1-1-1-1-1-1-1-1---|---1-1-1-1---1-1-1---1-1--|


  PM----------------------------|
                                   |--3--|
  S S S S S S +S  S +S  S S S S S  S  S  S
|---------------------------------------10-|
|------------------------------------12----|
|---------------------------------11-------|
|------------------------------------------|
|------------------------------------------|
|-3-3-3-3-3-3-(3)-3-(3)-3-3-3-3-3----------|
|-1-1-1-1-1-1-(1)-1-(1)-1-1-1-1-1----------|


                                                    ~~~~~~
   |------6------|  |----6-----|  |----6----| |---6----|
   S  S  S  S  S S  S S  S S S S  S S S S S S S S S S +E
|-14-10----------9-12-9--------7-10-7-------6-9-6----------||
|-------12----10--------10---8--------8---7-------7--------||
|----------11--------------9------------7-----------6-(6)-o||
|----------------------------------------------------------||
|---------------------------------------------------------o||
|----------------------------------------------------------||
|----------------------------------------------------------||


  Q=92
  Gtr I
    PM-----------------------------------------------|    PM   PM   PM
  S S  S S S S S S S S S S S S S S   S S S S S S S S S  S S  S S  S S  S
|----------------------------------|-------------------------------------|
|----------------------------------|-------------------------------------|
|----------------------------------|-------------------------------------|
|----------------------------------|-------------------------------------|
|----------------------------------|-------------------------------------|
|----------------------------------|-------------------10---10---10---10-|
|-0-0--0-0-0-0-0-0-0-0-0-0-0-0-0-0-|-0-0-0-0-0-0-0-0-0----0----0----0----|
|
| Gtr II
|                                                         PM   PM   PM
| S E.     Q       H                 H               S  S S  S S  S S  S
|----------------------------------|-------------------------------------|
|----------------------------------|-------------------------------------|
|----------------------------------|-------------------------------------|
|----------------------------------|-------------------------------------|
|----------------------------------|-------------------------------------|
|----------------------------------|-------------------10---10---10---10-|
|-0--------------------------------|----------------------0----0----0----|


       PM--------------------------------------------|    PM   PM   PM
   S S S S S S S S S S S S S S S S   S S S S S S S S S  S S  S S  S S  S
|----------------------------------|-------------------------------------|
|----------------------------------|-------------------------------------|
|----------------------------------|-------------------------------------|
|----------------------------------|-------------------------------------|
|----------------------------------|-------------------------------------|
|-10-------------------------------|-------------------10---10---10---10-|
|----0-0-0-0-0-0-0-0-0-0-0-0-0-0-0-|-0-0-0-0-0-0-0-0-0----0----0----0----|
|
|                                                         PM   PM   PM
|  S S E   Q       H                 H               S  S S  S S  S S  S
|----------------------------------|-------------------------------------|
|----------------------------------|-------------------------------------|
|----------------------------------|-------------------------------------|
|----------------------------------|-------------------------------------|
|----------------------------------|-------------------------------------|
|-10-------------------------------|-------------------10---10---10---10-|
|----0-----------------------------|----------------------0----0----0----|


       PM----------|    PM   PM   PM|          ~~~~~~PM----|   PM|
   S S S S S S S S S  S S  S S  S S S    S S S S +E  S S S S S S S  S S  S
|-------------------------------------|------------------------------------|
|-------------------------------------|------------------------------------|
|-------------------------------------|------------------------------------|
|-------------------------------------|------------------------------------|
|-------------------------------------|----------------------------10-9-10-|
|-10-----------------10---10---10-----|-10-----9-(9)---------3------8-7--8-|
|----0-0-0-0-0-0-0-0----0----0----0-0-|----8-7-------0-0-0-0-1-0-0---------|
|
|  S S E   Q       H                     W
|-------------------------------------|------------------------------------|
|-------------------------------------|------------------------------------|
|-------------------------------------|------------------------------------|
|-------------------------------------|------------------------------------|
|-------------------------------------|------------------------------------|
|-10----------------------------------|------------------------------------|
|----0--------------------------------|------------------------------------|


       PM----------|    PM   PM   PM|            ~~~~~~PM|     PM|
   S S S S S S S S S  S S  S S  S S S    S   S S S +E  S S S S S S S  S  S  S
|-------------------------------------|---------------------------------------|
|-------------------------------------|---------------------------------------|
|-------------------------------------|---------------------------------------|
|-------------------------------------|---------------------------------------|
|-12----------------------------------|--------------------5-7-----7-10-10-10-|
|-10-----------------10---10---10-----|-10-------9-(9)-----3s5-----5s=8--8--8-|
|----0-0-0-0-0-0-0-0----0----0----0-0-|------8-7-------0-0-----0-0------------|
|
|                                        PM-----------------------------|
|  W                                     H..                             E
|-------------------------------------|---------------------------------------|
|-------------------------------------|---------------------------------------|
|-------------------------------------|---------------------------------------|
|-------------------------------------|---------------------------------------|
|-------------------------------------|-12s==============================1----|
|-------------------------------------|-12s==============================1----|
|-------------------------------------|-12s==============================1----|


    Gtrs I, II
         PM----------|    PM   PM   PM|          ~~~~~~PM----|   PM|
     S S S S S S S S S  S S  S S  S S S    S S S S +E  S S S S S S S  S S  S
||--------------------------------------|------------------------------------|
||--------------------------------------|------------------------------------|
||o-------------------------------------|------------------------------------|
||--------------------------------------|------------------------------------|
||o-------------------------------------|----------------------------10-9-10-|
||--10-----------------10---10---10-----|-10-----9-(9)---------3------8-7--8-|
||-----0-0-0-0-0-0-0-0----0----0----0-0-|----8-7-------0-0-0-0-1-0-0---------|


       PM----------|    PM   PM   PM|          ~~~~~~PM|     PM|
   S S S S S S S S S  S S  S S  S S S    S S S S +E  S S S S S S S  S  S  S
|-------------------------------------|--------------------------------------||
|-------------------------------------|--------------------------------------||
|-------------------------------------|-------------------------------------o||
|-------------------------------------|--------------------------------------||
|-12----------------------------------|------------------5-7-----7-10-10-10-o||
|-10-----------------10---10---10-----|-10-----9-(9)-----3s5-----5s=8--8--8--||
|----0-0-0-0-0-0-0-0----0----0----0-0-|----8-7-------0-0-----0-0-------------||


    H    H      H    H
||------------|------------||
||------------|------------||
||o-----------|-----------o||
||------------|-5----4-----||
||o-2----3----|-5----5----o||
||--2----3----|-3----7-----||
||--0----1----|------------||


  Q  Q  Q  Q
|-------------|
|-------------|
|-------------|
|-------5--4--|
|-2--3--5--5--|
|-2--3--3--7--|
|-0--1--------|


  Q=124
  Gtr I
      PM  PM|          PM  PM|         PM|   PM|     PM|     PM|
  S S S S S S S  S S S S S S S S S   S S S S S S S S S S S S S S S S
|----------------------------------|---------------------------------|
|----------------------------------|---------------------------------|
|----------------------------------|---------------------------------|
|----------------------------------|---------------------------------|
|----------------------------------|---------------------7-5---------|
|-8-7---7-----7-10-8-7---7-----7-8-|-7-----7-----7-8-------------5-8-|
|-----0---0-0----------0---0-0-----|---0-0---0-0-----0-0-----0-0-----|


      PM  PM|          PM  PM|           PM|   PM--|
  S S S S S S S  S S S S S S S S S    S  S S S S S S S  S    S S S  S S S  S
|----------------------------------|------------------------------------------|
|----------------------------------|------------------------------------------|
|----------------------------------|------------------------------------------|
|----------------------------------|------------------------------------------|
|----------------------------------|------------------------------------------|
|-8-7---7-----7-10-8-7---7-----7-8-|--5------5-------8---------7-8-10-8-7-----|
|-----0---0-0----------0---0-0-----|-----0-0---0-0-0----8---10------------10--|
|
| Gtr II
|                                                       PM----------------|
| W                                  +H                 Q..                S
|----------------------------------|------------------------------------------|
|----------------------------------|------------------------------------------|
|----------------------------------|------------------------------------------|
|----------------------------------|------------------------------------------|
|-2--------------------------------|-(2)--------------------------------------|
|-2--------------------------------|-(2)---------------12s================(0)-|
|-0--------------------------------|-(0)---------------12s================(0)-|


    Gtrs I, II
        PM  PM|          PM  PM|         PM|   PM|     PM|     PM|
    S S S S S S S  S S S S S S S S S   S S S S S S S S S S S S S S S S
||-----------------------------------|----------------------------------|
||-----------------------------------|----------------------------------|
||o----------------------------------|----------------------------------|
||-----------------------------------|----------------------------------|
||o----------------------------------|---------------------7-5----------|
||--8-7---7-----7-10-8-7---7-----7-8-|-7-----7-----7-8-------------5-8--|
||------0---0-0----------0---0-0-----|---0-0---0-0-----0-0-----0-0------|


      PM  PM|          PM  PM|         PM|   PM--|
  S S S S S S S  S S S S S S S S S   S S S S S S S S S  S S S  S S S  S
|----------------------------------|-------------------------------------||
|----------------------------------|-------------------------------------||
|----------------------------------|------------------------------------o||
|----------------------------------|-------------------------------------||
|----------------------------------|------------------------------------o||
|-8-7---7-----7-10-8-7---7-----7-8-|-5-----5-------8------7-8-10-8-7-----||
|-----0---0-0----------0---0-0-----|---0-0---0-0-0---8-10------------10--||


  Gtr I
  PM--|   PM        PM---|     PM      PM-
  S S S S S  S S S  S  S  S S  S  S S  S
|----------------------------------------|
|----------------------------------------|
|----------------------------------------|
|----------------------------------------|
|-------9---10-9-7----------9----10-9----|
|-7-7-7---7--------10-10-10---10------12-|
|----------------------------------------|
|
| Gtr II
| H                 H
|----------------------------------------|
|----------------------------------------|
|----------------------------------------|
|----------------------------------------|
|-2-----------------5--------------------|
|-2-----------------5--------------------|
|-0-----------------3--------------------|


 -------|      PM       PM------|      PM|
   S  S  S  S  S  S  S  S  S  S  S  S  S  S  S  S
|-------------------------------------------------|
|-------------------------------------------------|
|-------------------------------------------------|
|-------------------------------------------------|
|----------10----12-10-------------12-------12-14-|
|-12-12-12----12-------12-14-14-14----14-14-------|
|-------------------------------------------------|
|
|  H                       Q           Q
|-------------------------------------------------|
|-------------------------------------------------|
|-------------------------------------------------|
|--------------------------5----------------------|
|--7-----------------------5-----------5----------|
|--7-----------------------3-----------5----------|
|--5-----------------------------------3----------|


  PM--|   PM        PM---|     PM      PM-
  S S S S S  S S S  S  S  S S  S  S S  S
|----------------------------------------|
|----------------------------------------|
|----------------------------------------|
|----------------------------------------|
|-------9---10-9-7----------9----10-9----|
|-7-7-7---7--------10-10-10---10------12-|
|----------------------------------------|
|
| H                 H
|----------------------------------------|
|----------------------------------------|
|----------------------------------------|
|----------------------------------------|
|-2-----------------5--------------------|
|-2-----------------5--------------------|
|-0-----------------3--------------------|


 -------|      PM       PM------|      PM|
   S  S  S  S  S  S  S  S  S  S  S  S  S  S  S  S
|-------------------------------------------------|
|-------------------------------------------------|
|-------------------------------------------------|
|-------------------------------------------------|
|----------10----12-10-------------12-------12-14-|
|-12-12-12----12-------12-14-14-14----14-14-------|
|-------------------------------------------------|
|
|  H                       H
|-------------------------------------------------|
|-------------------------------------------------|
|-------------------------------------------------|
|--------------------------5----------------------|
|--7-----------------------5----------------------|
|--7-----------------------3----------------------|
|--5----------------------------------------------|


  Gtr III
  S S S S S  S S S  S  S  S S  S  S S  S
|----------------------------------------|
|----------------------------------------|
|----------------------------------------|
|-------7----9-7------------7-----9-7----|
|-5-5-5---5------9--9--9--9----9-------9-|
|----------------------------------------|
|----------------------------------------|
|
| Gtr I
| PM--|   PM        PM---|     PM      PM-
| S S S S S  S S S  S  S  S S  S  S S  S
|----------------------------------------|
|----------------------------------------|
|----------------------------------------|
|----------------------------------------|
|-------9---10-9-7----------9----10-9----|
|-7-7-7---7--------10-10-10---10------12-|
|----------------------------------------|
|
| Gtr II
| H                 H
|----------------------------------------|
|----------------------------------------|
|----------------------------------------|
|-0-----------------4--------------------|
|-2-----------------5--------------------|
|-2-----------------5--------------------|
|-0-----------------3--------------------|


   S  S  S  S  S  S  S  S  S  S  S  S  S  S  S  S
|-------------------------------------------------|
|-------------------------------------------------|
|-------------------------------------------------|
|-----------9----10--9-------------10-------10-12-|
|-10-10-10----10-------12-12-12-12----12-12-------|
|-------------------------------------------------|
|-------------------------------------------------|
|
|-------|      PM       PM------|      PM|
|  S  S  S  S  S  S  S  S  S  S  S  S  S  S  S  S
|-------------------------------------------------|
|-------------------------------------------------|
|-------------------------------------------------|
|-------------------------------------------------|
|----------10----12-10-------------12-------12-14-|
|-12-12-12----12-------12-14-14-14----14-14-------|
|-------------------------------------------------|
|
|  H                       Q           Q
|-------------------------------------------------|
|-------------------------------------------------|
|-------------------------------------------------|
|--5-----------------------9-----------7----------|
|--7----------------------10-----------9----------|
|--7----------------------10-----------9----------|
|--5-----------------------8-----------7----------|


  S S S S S  S S S  S  S  S S  S  S S  S
|----------------------------------------|
|----------------------------------------|
|----------------------------------------|
|-------7----9-7------------7-----9-7----|
|-5-5-5---5------9--9--9--9----9-------9-|
|----------------------------------------|
|----------------------------------------|
|
| PM--|   PM        PM---|     PM      PM-
| S S S S S  S S S  S  S  S S  S  S S  S
|----------------------------------------|
|----------------------------------------|
|----------------------------------------|
|----------------------------------------|
|-------9---10-9-7----------9----10-9----|
|-7-7-7---7--------10-10-10---10------12-|
|----------------------------------------|
|
| H                 H
|----------------------------------------|
|----------------------------------------|
|----------------------------------------|
|-0-----------------4--------------------|
|-2-----------------5--------------------|
|-2-----------------5--------------------|
|-0-----------------3--------------------|


   S  S  S  S  S  S  S  S  S   S  S  S  S  S  S  S
|--------------------------------------------------|
|--------------------------------------------------|
|--------------------------------------------------|
|-----------9----10--9--------------10-------10-12-|
|-10-10-10----10-------12-12--12-12----12-12-------|
|--------------------------------------------------|
|--------------------------------------------------|
|
|-------|      PM       PM-------|      PM|
|  S  S  S  S  S  S  S  S  S   S  S  S  S  S  S  S
|--------------------------------------------------|
|--------------------------------------------------|
|--------------------------------------------------|
|--------------------------------------------------|
|----------10----12-10--------------12-------12-14-|
|-12-12-12----12-------12-14--14-14----14-14-------|
|--------------------------------------------------|
|
|                          ~~~
|  H                       H
|--------------------------------------------------|
|--------------------------------------------------|
|--------------------------------------------------|
|--5-----------------------------------------------|
|--7-----------------------------------------------|
|--7-----------------------------------------------|
|--5----------------------[8]----------------------|


  Q=69
  PM-----------------------------------------------
  |----6----| |----6----| |----6----| |----6----|
  S S S S S S S S S S S S S S S S S S S S S S S S
|-------------------------------------------------|
|-------------------------------------------------|
|-------------------------------------------------|
|-------------------------------------------------|
|-------------------------------------------------|
|-2---2---2-2-2-2-2-2---2---2-2-2-2-2---2-2-2-2-2-|
|-0---0---0-0-0-0-0-0---0---0-0-0-0-0---0-0-0-0-0-|
|
| W
|-------------------------------------------------|
|-0-----------------------------------------------|
|-0-----------------------------------------------|
|-0-----------------------------------------------|
|-2-----------------------------------------------|
|-2-----------------------------------------------|
|-0-----------------------------------------------|


 -------------------------|   PM-----------------------|
   |----6-----| |----6----| |----6----|  |------6------|
   S  S S S S S S S S S S S S S S S S S  S S S S S     S
|--------------------------------------------------------|
|--------------------------------------------------------|
|--------------------------------------------------------|
|--------------------------------------------------------|
|--------------------------------------------------------|
|--2----2---2-2-2-2-2-2---2---2-2-2-2-2--2---2-2-2-----2-|
|--0----0---0-0-0-0-0-0---0---0-0-0-0-0--0---0-0-0-----0-|
|
|                                        PM--------|
| +H                        Q            E.         S
|--------------------------------------------------------|
|-(0)----------------------------------------------------|
|-(0)----------------------------------------------------|
|-(0)----------------------------------------------------|
|-(2)----------------------------------------------------|
|-(2)-----------------------------------12s========(1)---|
|-(0)-----------------------------------12s========(1)---|


    Gtrs I, II
    PM-----------------------------------------------
    |----6----| |----6----| |----6----| |----6----|
    S S S S S S S S S S S S S S S S S S S S S S S S
||--------------------------------------------------|
||--------------------------------------------------|
||o-------------------------------------------------|
||--------------------------------------------------|
||o-------------------------------------------------|
||--3---3---3-3-3-3-3-3---3---3-3-3-3-3---3-3-3-3-3-|
||--1---1---1-1-1-1-1-1---1---1-1-1-1-1---1-1-1-1-1-|


 -----------------------|     PM|
  |----6----| |----6----|
  S S S S S S S S S S S S Q   E. S
|-------------------------------------|
|-------------------------------------|
|-------------------------------------|
|-------------------------------------|
|-------------------------------------|
|-3---3---3-3-3-3-3-3---3----13s(1)---|
|-1---1---1-1-1-1-1-1---1----13s(1)---|


  PM-----------------------------------------------
  |----6----| |----6----| |----6----| |----6----|
  S S S S S S S S S S S S S S S S S S S S S S S S
|-------------------------------------------------|
|-------------------------------------------------|
|-------------------------------------------------|
|-------------------------------------------------|
|-------------------------------------------------|
|-3---3---3-3-3-3-3-3---3---3-3-3-3-3---3-3-3-3-3-|
|-1---1---1-1-1-1-1-1---1---1-1-1-1-1---1-1-1-1-1-|


 -----------------------|   PM------------------|
  |----6----| |----6----| |----6----| |----6----|
  S S S S S S S S S S S S S S S S S S S S S S S S
|---------------------------------------------------||
|---------------------------------------------------||
|--------------------------------------------------o||
|---------------------------------------------------||
|--------------------------------------------------o||
|-3---3---3-3-3-3-3-3---3---3-3-3-3-3-3---3-3-3-3---||
|-1---1---1-1-1-1-1-1---1---1-1-1-1-1-1---1-1-1-1---||


  S S E Q  H
|---------------*|
|---------------*|
|---------------*|
|---------------*|
|---------------*|
|-3-------------*|
|-1-------------*|


Duration Legend
---------------
W - whole; H - half; Q - quarter; E - 8th; S - 16th; T - 32nd; X - 64th; a - acciaccatura
+ - note tied to previous; . - note dotted; .. - note double dotted
Uncapitalized letters represent notes that are staccato (1/2 duration)
Irregular groupings are notated above the duration line
Duration letters will always appear directly above the note/fret number it represents the
duration for.  Duration letters with no fret number below them represent rests.  Multi-
bar rests are notated in the form Wxn, where n is the number of bars to rest for.  Low
melody durations appear below the staff

Tablature Legend
----------------
 h   - hammer-on
 p   - pull-off
 b   - bend
 pb  - pre-bend
 r   - bend release (if no number after the r, then release immediately)
 /\  - slide into or out of (from/to "nowhere")
 s   - legato slide
 S   - shift slide
  - natural harmonic
[n]  - artificial harmonic
n(n) - tapped harmonic
 ~   - vibrato
 tr  - trill
 T   - tap
 TP  - trem. picking
 PM  - palm muting
\n/  - tremolo bar dip; n = amount to dip
 \n  - tremolo bar down
 n/  - tremolo bar up
/n\  - tremolo bar inverted dip
 =   - hold bend; also acts as connecting device for hammers/pulls
 <>  - volume swell (louder/softer)
 x   - on rhythm slash represents muted slash
 o   - on rhythm slash represents single note slash

Misc Legend
-----------
 |  - bar
||  - double bar
||o - repeat start
o|| - repeat end
*|  - double bar (ending)
 :  - bar (freetime)
 $  - Segno
 &  - Coda
Tempo markers -  = BPM(8/16=s8/s16), where s8 = swing 8ths, s16 = swing 16ths


***************************************************************************************
***************************************************************************************





Comments


Popular Unearth tabs & chords
Shattered By The Sun Bass Tabs
Sanctity Of Brothers Drum Tabs
Black Hearts Now Reign 1 Tabs
Crow Killer Tabs
Grave Of Opportunity 1 Tabs
Lie To Purify Tabs
My Will Be Done Intro Tabs
Sanctity Of Brothers 1 Tabs
The Charm Tabs
We Are Not Anonymous Intro Tabs


Song lyrics



↑ Back to top | Tablatures and chords are parodies/interpretations of the original songs. You may use it for private study, scholarship, research or language learning purposes only
© 2014 AZChords.com Contact us | Privacy policy | DMCA | Add/correct tabs | Request tabs | Top 50 tabs