>
 >
Bloodlust Of The Human Condition

Bloodlust Of The Human Condition Guitar Tabs

Unearth - Bloodlust Of The Human Condition chords, tabs, tablatures, lyrics

Guitar lessons | Add/correct | Request | Top 50 tabs Artists:  A B C D E F G H I J K L M N O P Q R S T U V W X Y Z 0-9

Bloodlust Of The Human Condition Guitar Tabs – Unearth

CD, Sheet music, Poster

Do you like Bloodlust Of The Human Condition? Share with your friends now
Bass TabsTabsTabs v2
-------------------------------------------------------------------------------
-------------------------------------------------------------------------------

Tuning:BEADGBe

:09
e|--------------|
B|--------------|
G|--------------|
D|--------------|X7
A|--------------|
E|--------------|
B|--0000-0-000--|


e|-------------|
B|-------------|
G|-------------|
D|-------------|
A|-------------|
E|-------------|
B|--0000-0000--|


:19
e|---------------|
B|---------------|
G|---------------|
D|---------------|X3
A|---------------|
E|---------------|
B|--0000-0-0000--|


:29
e|-----------------|
B|-----------------|
G|-----------------|
D|-----------------|
A|-----------------|
E|-----------------|
B|--0000-0-000000--|


:32
e|-------------------------------|
B|-------------------------------|
G|-------------------------------|
D|-------------------------------|
A|----9--7--10-7--9--7-7--10-----|
E|----7--5--8--5--7--5-5--8------|
B|---------------------------00--|


:35
e|-------------------------------------------|
B|-------------------------------------------|
G|-------------------------------------------|
D|-------------------------------------------|X3
A|----9--7--10-7--9--7--10-7--9--7-7--10-----|
E|----7--5--8--5--7--5--8--5--7--5-5--8------|
B|-00------------------------------------00--|

:51
e|----------------|
B|----------------|
G|----------------|
D|----------------|
A|----9--7--10-7--|
E|----7--5--8--5--|
B|-00-------------|

Guitar 1
:53
e|-----------------------------------------|
B|-----------------------------------------|
G|-----------------------------------------|
D|-----------------------------------------|
A|--9--------------------------------------|
E|--7--------------------------------------|
B|--0--------------------------------------|


Guitar 2
:53
e|----------10h14p10------10h14p10---------|
B|--------12--------12--12--------12-------|
G|------11------------11------------11-----|
D|----12------------------------------12---|X2
A|--14-------------------------------------|
E|-----------------------------------------|
B|-----------------------------------------|


Guitar 1
:56
e|---------------------------|
B|---------------------------|
G|---------------------------|
D|---------------------------|
A|--5------------------------|
E|--3------------------------|
B|---------------------------|


Guitar 2
:56
e|-------7h10p7---7h10p7-----|
B|------8------8-8------8----|
G|-----7--------7--------7---|
D|----9-------------------9--|
A|--10-----------------------|
E|---------------------------|
B|---------------------------|



Guitar 1
:57
e|---------------------------|
B|---------------------------|
G|---------------------------|
D|---------------------------|
A|--7------------------------|
E|--5------------------------|
B|---------------------------|


Guitar 2
:57
e|---------9h12p9-----9h12p9------|
B|-------10------10-10------10----|
G|------9----------9----------9---|
D|----11-----------------------11-|
A|--12----------------------------|
E|--------------------------------|
B|--------------------------------|




e|--------------------------|
B|--------------------------|
G|--------------------------|
D|--------------------------|
A|--------------------------|
E|-----------7----5----7----|
B|--0-000000---00---00---0--|



e|-----------------------------|
B|-----------------------------|
G|-----------------------------|
D|-----------------------------|
A|-----------------------------|
E|-----------5----10----8---7--|
B|--0-000000---00----00---0----|

e|-----------------------------------------------------|
B|-----------------------------------------------------|
G|-----------------------------------------------------|
D|-----------------------------------------------------|
A|-----------------------------------------------------|
E|---------7----5----7---3----5----7---8p7---5----7----|
B|--000000---00---00---0---00---00---0-----0---00---0--| 

e|----------------------------------------------------------|
B|----------------------------------------------------------|
G|----------------------------------------------------------|
D|----------------------------------------------------------|
A|--9-------9\7-10--------7/9-9-----------------------------|
E|--7--2----7\5-8---2-----5/7-7--2----------7---5---10-8~~--|
B|-----0-00---------0--00--------0-00-000-0---0---0---------|


OK then repeat the rhythm parts and the sweeps and eventually play this.


e|----------------------------------------------------------------------|
B|--7-00-5-00-7-00-8-00-7-00-5-00-X2-8-00-7-00-8-00-10-00-8-00-7-00-X2--|
G|----------------------------------------------------------------------|
D|----------------------------------------------------------------------|
A|----------------------------------------------------------------------|
E|----------------------------------------------------------------------|
B|----------------------------------------------------------------------| 

e|-------------------------------------------------------------------------|
B|--12-00-10-00-12-00-13-00-12-00-10-00-10-00-8-00-10-00-12-00-10-00-8-00--|
G|-------------------------------------------------------------------------|
D|-------------------------------------------------------------------------|
A|-------------------------------------------------------------------------|
E|-------------------------------------------------------------------------|
B|-------------------------------------------------------------------------|


e|---------------------------------------------------------------|
B|--7-00-5-00-7-00-8-00-7-00-5-00-4-00-5-00-7-00-8-00-7-00-5-00--|
G|---------------------------------------------------------------|
D|---------------------------------------------------------------|
A|---------------------------------------------------------------|
E|---------------------------------------------------------------|
B|---------------------------------------------------------------|

End with:
e|----------------------------------------|
B|--7h8p7h8p-5h7p5h7----------------------|
G|-------------------7h9p7h9-5h7p5h7-4~~--|
D|----------------------------------------|
A|----------------------------------------|
E|----------------------------------------|
B|----------------------------------------| 



| /  slide up
| \  slide down
| h  hammer-on
| p  pull-off
| ~  vibrato
| +  harmonic
| x  Mute note
===============================================================================





Comments


Popular Unearth tabs & chords
One Step Away 2 Bass Tabs
Chosen Tabs
Endless 1 Tabs
Letting Go Tabs
March Of The Mutes Intro Tabs
One Step Away Tabs
So It Goes Intro Tabs
This Glorious Nightmare 1 Tabs
This Glorious Nightmare Intro Tabs
This Lying World Tabs


Song lyrics



↑ Back to top | Tablatures and chords are parodies/interpretations of the original songs. You may use it for private study, scholarship, research or language learning purposes only
© 2014 AZChords.com Contact us | Privacy policy | DMCA | Add/correct tabs | Request tabs | Top 50 tabs