>
 >
Bloodlust Of The Human Condition

Bloodlust Of The Human Condition Bass Tabs

Unearth - Bloodlust Of The Human Condition chords, tabs, tablatures, lyrics

Guitar lessons | Add/correct | Request | Top 50 tabs Artists:  A B C D E F G H I J K L M N O P Q R S T U V W X Y Z 0-9

Bloodlust Of The Human Condition Bass Tabs – Unearth

CD, Sheet music, Poster

Do you like Bloodlust Of The Human Condition? Share with your friends now
Bass TabsTabsTabs v2
yeah tabbed this out for 4-stringersTuned to "drop B" B,F#,b,E

Riff A (0:00-0:19)                       1st time     2nd time
|----------|------------|------------|    |----------| |---------|
|----------|------------|------------|(x3)|----------| |---------|
|----------|------------|------------|    |----------| |---------|
|0000-0-000|--0000-0-000|--0000-0-000|    |0000-0-000| |0000-0000|

Riff B (0:20-0:32)
|-------------|-------------|-------------|-------------|
|-------------|-------------|-------------|-------------|
|-------------|-------------|-------------|-------------|
|0000-0-000-0-|0000-0-000-0-|0000-0-000-0-|0000-0-000000|

Riff C (0:33-0:53)
|---------------------|---------------------------|
|---------------------|---------------------------|
|5-3-6-3-5-3-3-6------|5-3-6-3-5-3-6-5-3-3-6------|
|----------------00-00|----------------------00-00|

Riff C continued
|-----------------------------|-----------------------------|
|-----------------------------|-----------------------------|
|5-3-6-3-5-3-6-3-5-3-3-6------|5-3-6-3-5-3-6-3-5-3-3-6------|
|------------------------00-00|------------------------00-00|          

Riff D(0:54-1:17)
|-------| |------------------|
|-------| |------------------|
|5-3-6-3| |-------------1*-3*|
|-------| |0*(let ring)------|

Riff E (1:17-1:41)
|--------------------------|--------------------------|
|--------------------------|--------------------------|
|--------------------------|---------------5-3-5-6-5-3|
|0-------0-0-0-------0-0-0-|0--------0-0-0------------|

|--------------------------|--------------------------|
|--------------------------|--------------------------|
|5-------5-3-5-------5-8-7-|5--------5-3-5-5-3-5-6-5-3| repeat
|-000000------000000-------|--000000------------------|

Riff F (1:42-2:06)
|-------------------------------------------s---|
|---------s-----------s--------------------3/2--|
|5-5-----3/5-6-5-----3/6-5-5---------1-3-5-----3|
|----0-0---------0-0---------0-0-000------------|

Riff A (2:06-2:11)
Riff B (2:12-2:24)
Riff D (2:25-2:48)
Riff A(2:49-2:53)

Riff G (2:54-2:58)
|-----------|
|-----------|
|----5------|(x4)
|000---0-000|

Riff H (2:55-3:10)  (3:11-3:27)
|------------|     |--------------|
|------------|     |--------------|
|------------|(x4) |--------------|(x4)
|0-0--00-0-00|     |0*--0-0-00-0-0|





Comments


Popular Unearth tabs & chords
My Heart Bleeds No Longer 2 Bass Tabs
Big Bear And The Hour Of Chaos 2 Tabs
Black Hearts Now Reign Tabs
Chosen 1 Tabs
Grave Of Opportunity Tabs
One Step Away 1 Tabs
Stings Of Conscience Tabs
This Lying World Intro Tabs
Zombie Autopilot 3 Tabs
Zombie Autopilot 4 Tabs


Song lyrics



↑ Back to top | Tablatures and chords are parodies/interpretations of the original songs. You may use it for private study, scholarship, research or language learning purposes only
© 2014 AZChords.com Contact us | Privacy policy | DMCA | Add/correct tabs | Request tabs | Top 50 tabs