>
 >
Black Hearts Now Reign 1

Black Hearts Now Reign 1 Guitar Tabs

Unearth - Black Hearts Now Reign 1 chords, tabs, tablatures, lyrics

Guitar lessons | Add/correct | Request | Top 50 tabs Artists:  A B C D E F G H I J K L M N O P Q R S T U V W X Y Z 0-9

Black Hearts Now Reign 1 Guitar Tabs – Unearth

CD, Sheet music, Poster

Do you like Black Hearts Now Reign 1? Share with your friends now
TabsTabs v2
                        Black Hearts Now Reign
                                 Unearth

Gtr 1
7-String Guitar Required (BEADGBE)

ok i fixed this tab up and now both gtrs (until the outro) are formed into one guitar so 
you go, hope this saves some paper.

         PM PM PM   PM PM PM   PM PM PM                PM          PM
     E   S  S  S  S S  S  S  S S  S  S  S E      E  E  E   Q    E  E  E
E||-------------------------------------------|-------------------------|
B||-------------------------------------------|-------------------------|
G||-------------------------------------------|-------------------------|
D||--5\-----------------------------------5\--|--L--4-----10----9-----5\|
A||--7\-----------------------------------7\--|--L--5------8----7-----7\|
E||------0--0--0----0--0--0----0--0--0--------|--------0---8----7--0----|
B||-------------------------------------------|-------------------------|

     PM PM PM   PM PM PM   PM PM PM               PM         PM
  E  S  S  S  S S  S  S  S S  S  S  S E     E  E  E  Q    E  E  E
-----------------------------------------|-------------------------|
-----------------------------------------|-------------------------|
-----------------------------------------|-------------------------|
--L-----------------------------------5--|--L--4-----7----5-----2--|
--L-----------------------------------7--|--L--5-----5----3-----3--|
-----0--0--0----0--0--0----0--0--0-------|--------0--5----3--0-----|
-----------------------------------------|-------------------------|

     PM PM PM   PM PM PM   PM PM PM               PM         PM
  E  S  S  S  S S  S  S  S S  S  S  S E     E  E  E  Q    E  E  E
-----------------------------------------|-------------------------|
-----------------------------------------|-------------------------|
-----------------------------------------|-------------------------|
--L-----------------------------------4--|--L--5-----5----7-----9--|
--L-----------------------------------2--|--L--3-----3----5-----7--|
-----0--0--0----0--0--0----0--0--0----2--|--L--3--0--3----5--0-----|
-----------------------------------------|-------------------------|

         PM PM PM PM PM PM       PM    PM
   E  E  E  E  E  E  E  E     E  E  E  E  E   E  E  E
---------------------------|----------------------------|
---------------------------|----------------------------|
---------------------------|----------------------------|
--10--9--------------------|--9-----7-----9--10--9--5\--|
---8--7--------------------|--7-----5-----7---8--7--7\--|
---------0--0--0--0--0--0--|-----0-----0----------------|
---------------------------|----------------------------|

     PM PM PM   PM PM PM   PM PM PM                PM          PM
  E  S  S  S  S S  S  S  S S  S  S  S E      E  E  E   Q    E  E  E
------------------------------------------|---------------------------|
------------------------------------------|---------------------------|
------------------------------------------|---------------------------|
--L-----------------------------------5\--|--L--4-----10----9-----5\--|
--L-----------------------------------7\--|--L--5------8----7-----7\--|
-----0--0--0----0--0--0----0--0--0--------|--------0---8----7--0------|
------------------------------------------|---------------------------|

     PM PM PM   PM PM PM   PM PM PM               PM         PM
  E  S  S  S  S S  S  S  S S  S  S  S E     E  E  E  Q    E  E  E
-----------------------------------------|-------------------------|
-----------------------------------------|-------------------------|
-----------------------------------------|-------------------------|
--L-----------------------------------5--|--L--4-----7----5-----2--|
--L-----------------------------------7--|--L--5-----5----3-----3--|
-----0--0--0----0--0--0----0--0--0-------|--------0--5----3--0-----|
-----------------------------------------|-------------------------|

     PM PM PM   PM PM PM   PM PM PM               PM         PM
  E  S  S  S  S S  S  S  S S  S  S  S E     E  E  E  Q    E  E  E
-----------------------------------------|-------------------------|
-----------------------------------------|-------------------------|
-----------------------------------------|-------------------------|
--L-----------------------------------4--|--L--5-----5----7-----9--|
--L-----------------------------------2--|--L--3-----3----5-----7--|
-----0--0--0----0--0--0----0--0--0----2--|--L--3--0--3----5--0-----|
-----------------------------------------|-------------------------|

         PM PM PM PM PM PM       PM    PM
   E  E  E  E  E  E  E  E     E  E  E  E  E   E  E  E
---------------------------|----------------------------|
---------------------------|----------------------------|
---------------------------|----------------------------|
--10--9--------------------|--9-----7-----9--10--9--5\--|
---8--7--------------------|--7-----5-----7---8--7--7\--|
---------0--0--0--0--0--0--|-----0-----0----------------|
---------------------------|----------------------------|

     PM PM PM   PM PM PM   PM PM PM                PM          PM
  E  S  S  S  S S  S  S  S S  S  S  S E      E  E  E   Q    E  E  E
------------------------------------------|---------------------------|
------------------------------------------|---------------------------|
------------------------------------------|---------------------------|
--L-----------------------------------5\--|--L--4-----10----9-----5\--|
--L-----------------------------------7\--|--L--5------8----7-----7\--|
-----0--0--0----0--0--0----0--0--0--------|--------0---8----7--0------|
------------------------------------------|---------------------------|

     PM PM PM   PM PM PM   PM PM PM               PM         PM
  E  S  S  S  S S  S  S  S S  S  S  S E     E  E  E  Q    E  E  E
-----------------------------------------|-------------------------|
-----------------------------------------|-------------------------|
-----------------------------------------|-------------------------|
--L-----------------------------------5--|--L--4-----7----5-----2--|
--L-----------------------------------7--|--L--5-----5----3-----3--|
-----0--0--0----0--0--0----0--0--0-------|--------0--5----3--0-----|
-----------------------------------------|-------------------------|

     PM PM PM   PM PM PM   PM PM PM               PM         PM
  E  S  S  S  S S  S  S  S S  S  S  S E     E  E  E  Q    E  E  E
-----------------------------------------|-------------------------|
-----------------------------------------|-------------------------|
-----------------------------------------|-------------------------|
--L-----------------------------------4--|--L--5-----5----7-----9--|
--L-----------------------------------2--|--L--3-----3----5-----7--|
-----0--0--0----0--0--0----0--0--0----2--|--L--3--0--3----5--0-----|
-----------------------------------------|-------------------------|

         PM PM PM PM PM PM       PM    PM                (drum solo)
   E  E  E  E  E  E  E  E     E  E  E  E  E   E  E  E      W
---------------------------|----------------------------|---------------|
---------------------------|----------------------------|---------------|
---------------------------|----------------------------|---------------|
--10--9--------------------|--9-----7-----9--10--9--9\--|---------------|
---8--7--------------------|--7-----5-----7---8--7--7\--|---------------|
---------0--0--0--0--0--0--|-----0-----0----------------|---------------|
---------------------------|----------------------------|---------------|

  PM   PM PM PM   PM PM PM                   PM PM PM             PM
  S  S S  S  S  S S  S  S  S E  E   E     E  S  S  S  S E   E  E  E  E
---------------------------------------|--------------------------------|
---------------------------------------|--------------------------------|
---------------------------------------|--------------------------------|
---------------------------------------|--------------------------------|
---------------------------------------|--------------------------------|
-----------------------------7--9--10--|--9-------------9--12--9-----9--|
--0----0--0--0----0--0--0--------------|-----0--0--0--------------0-----|

                  PM                 PM
   E  S S S S S S S  S  E  E   E     E  E  E   E  E  E  E   E
----------------------------------|----------------------------|
----------------------------------|----------------------------|
----------------------------------|----------------------------|
----------------------------------|----------------------------|
----------------------------------|---------------9--7---------|
--10-------------------10--9------|--------7--10--------9------|
------0---0-0-0---0-----------10--|--0--8------------------10--|

  PM   PM PM PM   PM PM PM                   PM PM PM             PM
  S  S S  S  S  S S  S  S  S E  E   E     E  S  S  S  S E   E  E  E  E
---------------------------------------|--------------------------------|
---------------------------------------|--------------------------------|
---------------------------------------|--------------------------------|
---------------------------------------|--------------------------------|
---------------------------------------|--------------------------------|
-----------------------------7--9--10--|--9-------------9--12--9-----9--|
--0----0--0--0----0--0--0--------------|-----0--0--0--------------0-----|

   E  S S S S S S S S  E  E   E     E  S  S S  S E   Q    Q
---------------------------------|------------------------------|
---------------------------------|------------------------------|
---------------------------------|------------------------------|
---------------------------------|------------------------------|
---------------------------------|----------9-------------------|
--10------------------10--9------|-----7-10---10-9--10----9~----|
------0---0-0-0---0----------10--|--8---------------------------|

  PM PM PM PM PM PM PM              PM PM PM PM PM PM PM
  E  S  S  E  S  S  E  E  E   E     E  S  S  E  S  S  E   E   E  E
---------------------------------|----------------------------------|
---------------------------------|----------------------------------|
---------------------------------|----------------------------------|
---------------------------------|----------------------------------|
---------------------------------|----------------------------------|
-----------------------7--9--10--|-----------------------12--10--9--|
--0--0--0--0--0--0--0------------|--0--0--0--0--0--0--0-------------|

  PM PM PM PM PM PM PM              PM           PM
  E  S  S  E  S  S  E  E  E   E     E   E  E  E  E  E  E   E
---------------------------------|----------------------------|
---------------------------------|----------------------------|
---------------------------------|----------------------------|
---------------------------------|----------------------------|
---------------------------------|-----10--9--7-----9--7------|
-----------------------7--9--10--|------------------------10--|
--0--0--0--0--0--0--0------------|--0------------0------------|

  PM PM PM PM PM PM PM              PM PM PM PM PM PM PM
  E  S  S  E  S  S  E  E  E   E     E  S  S  E  S  S  E   E   E  E
---------------------------------|----------------------------------|
---------------------------------|----------------------------------|
---------------------------------|----------------------------------|
---------------------------------|----------------------------------|
---------------------------------|----------------------------------|
-----------------------7--9--10--|-----------------------12--10--9--|
--0--0--0--0--0--0--0------------|--0--0--0--0--0--0--0-------------|

  PM PM PM PM PM PM PM              PM           PM
  E  S  S  E  S  S  E  E  E   E     E   E  E  E  E  E  E  E
---------------------------------|---------------------------|
---------------------------------|---------------------------|
---------------------------------|---------------------------|
---------------------------------|---------------------------|
---------------------------------|-----10--9--7-----9--7-----|
-----------------------7--9--10--|------------------------7--|
--0--0--0--0--0--0--0------------|--0------------0-----------|

  |---3---|                      |---3---|
  E   E   E  E  E  E  E  Q       E   E   E  E  E  E  E  Q
------------------------------|------------------------------|
------------------------------|------------------------------|
------------------------------|------------------------------|
----------------5-------------|----------------5-------------|
--5h--7p--5--------7--5-------|--5h--7p--5--------7--5-------|
-------------7-----------7----|-------------7-----------8----|
------------------------------|------------------------------|

  |---3---|                      |---3---|
  E   E   E  E  E  E  E  Q       E   E   E  E  E  E  E  Q
------------------------------|------------------------------|
------------------------------|------------------------------|
------------------------------|------------------------------|
----------------5-------------|----------------5-------------|
--5h--7p--5--------7--5-------|--5h--7p--5--------7--5-------|
-------------7-----------5----|-------------7-----------7----|
------------------------------|------------------------------|

  |---3---|                      |---3---|
  E   E   E  E  E  E  E  Q       E   E   E  E  E  E  E  Q
------------------------------|------------------------------|
------------------------------|------------------------------|
------------------------------|------------------------------|
----------------5-------------|----------------5--------7----|
--5h--7p--5--------7--5-------|--5h--7p--5--------7--5-------|
-------------7-----------7----|-------------7----------------|
------------------------------|------------------------------|

  E  E  Q    E  Q     E     E  E   E  E  E  E  Q
-------------------------|--------------------------|
-------------------------|--------------------------|
-------------------------|--------------------------|
--5-----7----9--9b----9--|--9--7--------------------|
-------------------------|--------10--9--7--5-------|
-------------------------|---------------------7----|
-------------------------|--------------------------|

  |---3---|                      |---3---|
  E   E   E  E  E  E  E  Q       E   E   E  E  E  E  E  Q
------------------------------|------------------------------|
------------------------------|------------------------------|
------------------------------|------------------------------|
----------------5-------------|----------------5-------------|
--5h--7p--5--------7--5-------|--5h--7p--5--------7--5-------|
-------------7-----------7----|-------------7-----------8----|
------------------------------|------------------------------|

  |---3---|                      |---3---|
  E   E   E  E  E  E  E  Q       E   E   E  E  E  E  E  Q
------------------------------|------------------------------|
------------------------------|------------------------------|
------------------------------|------------------------------|
----------------5-------------|----------------5-------------|
--5h--7p--5--------7--5-------|--5h--7p--5--------7--5-------|
-------------7-----------5----|-------------7-----------7----|
------------------------------|------------------------------|

  |---3---|                      |---3---|
  E   E   E  E  E  E  E  Q       E   E   E  E  E  E  E  Q
------------------------------|------------------------------|
------------------------------|------------------------------|
------------------------------|------------------------------|
----------------5-------------|----------------5--------7----|
--5h--7p--5--------7--5-------|--5h--7p--5--------7--5-------|
-------------7-----------7----|-------------7----------------|
------------------------------|------------------------------|

  E  E  Q    E  Q     E     E  E   E  E  E  E   Q
-------------------------|---------------------------|
-------------------------|---------------------------|
-------------------------|---------------------------|
--5-----7----9--9b----9--|--9--7---------------------|
-------------------------|--------10--9--7--5--------|
-------------------------|---------------------10----|
-------------------------|---------------------------|

  |----3---|                         |----3---|
  E    E   E   E  E   E  E   Q       E    E   E   E  E   E  E   Q
----------------------------------|----------------------------------|
----------------------------------|----------------------------------|
----------------------------------|----------------------------------|
----------------------------------|----------------------------------|
--9h--10p--9------9--10--9--------|--9h--10p--9------9--10--9--------|
--------------10------------10----|--------------10------------12----|
----------------------------------|----------------------------------|

  |----3---|                         |----3---|
  E    E   E   E  E   E  E   Q       E    E   E   E  E   E  E   Q
----------------------------------|----------------------------------|
----------------------------------|----------------------------------|
----------------------------------|----------------------------------|
----------------------------------|----------------------------------|
--9h--10p--9------9--10--9--12----|--9h--10p--9------9--10--9--------|
--------------10------------------|--------------10------------10----|
----------------------------------|----------------------------------|

  |----3---|                         |----3---|
  E    E   E   E  E   E  E   Q       E    E   E   E  E   E  E   Q
----------------------------------|----------------------------------|
----------------------------------|----------------------------------|
----------------------------------|----------------------------------|
----------------------------------|----------------------------------|
--9h--10p--9------9--10--9--------|--9h--10p--9------9--10--9--------|
--------------10------------10----|--------------10------------12----|
----------------------------------|----------------------------------|

   E  E   Q    E  E   Q        E   E  E   E   E  E   Q
---------------------------|------------------------------|
---------------------------|------------------------------|
---------------------------|------------------------------|
---------------------------|----------9-------------------|
---------------9-----12----|--10--12-----12--10--9--------|
--10-----12----------------|------------------------10----|
---------------------------|------------------------------|

  |----3---|                         |----3---|
  E    E   E   E  E   E  E   Q       E    E   E   E  E   E  E   Q
----------------------------------|----------------------------------|
----------------------------------|----------------------------------|
----------------------------------|----------------------------------|
----------------------------------|----------------------------------|
--9h--10p--9------9--10--9--------|--9h--10p--9------9--10--9--------|
--------------10------------10----|--------------10------------12----|
----------------------------------|----------------------------------|

  |----3---|                         |----3---|
  E    E   E   E  E   E  E   Q       E    E   E   E  E   E  E   Q
----------------------------------|----------------------------------|
----------------------------------|----------------------------------|
----------------------------------|----------------------------------|
----------------------------------|----------------------------------|
--9h--10p--9------9--10--9--12----|--9h--10p--9------9--10--9--------|
--------------10------------------|--------------10------------10----|
----------------------------------|----------------------------------|

  |----3---|                         |----3---|
  E    E   E   E  E   E  E   Q       E    E   E   E  E   E  E  Q
----------------------------------|---------------------------------|
----------------------------------|---------------------------------|
----------------------------------|---------------------------------|
----------------------------------|----------------------------9----|
--9h--10p--9------9--10--9--------|--9h--10p--9------9--10--9--7----|
--------------10------------10----|--------------10------------0----|
----------------------------------|---------------------------------|

  PM PM PM PM PM PM PM PM            PM          PM
  E  E  E  E  E  E  E  E     Q    E  E   Q    E  E
--------------------------|-------------------------|
--------------------------|-------------------------|
--------------------------|-------------------------|
--------------------------|--9----7-----10----9-----|
--2--2--2--2--2--2--2--2--|--7----5------8----7-----|
--0--0--0--0--0--0--0--0--|----------0-----------0--|
--------------------------|-------------------------|

      PM PM PM   PM PM PM   PM PM PM                PM          PM
  E   S  S  S  S S  S  S  S S  S  S  S E      E  E  E   Q    E  E  E
-------------------------------------------|---------------------------|
-------------------------------------------|---------------------------|
-------------------------------------------|---------------------------|
--5\-----------------------------------5\--|--L--4-----10----9-----5\--|
--7\-----------------------------------7\--|--L--5------8----7-----7\--|
------0--0--0----0--0--0----0--0--0--------|--------0---8----7--0------|
-------------------------------------------|---------------------------|

     PM PM PM   PM PM PM   PM PM PM               PM         PM
  E  S  S  S  S S  S  S  S S  S  S  S E     E  E  E  Q    E  E  E
-----------------------------------------|-------------------------|
-----------------------------------------|-------------------------|
-----------------------------------------|-------------------------|
--L-----------------------------------5--|--L--4-----7----5-----2--|
--L-----------------------------------7--|--L--5-----5----3-----3--|
-----0--0--0----0--0--0----0--0--0-------|--------0--5----3--0-----|
-----------------------------------------|-------------------------|

     PM PM PM   PM PM PM   PM PM PM               PM         PM
  E  S  S  S  S S  S  S  S S  S  S  S E     E  E  E  Q    E  E  E
-----------------------------------------|-------------------------|
-----------------------------------------|-------------------------|
-----------------------------------------|-------------------------|
--L-----------------------------------4--|--L--5-----5----7-----9--|
--L-----------------------------------2--|--L--3-----3----5-----7--|
-----0--0--0----0--0--0----0--0--0----2--|--L--3--0--3----5--0-----|
-----------------------------------------|-------------------------|

         PM PM PM PM PM PM    PM    PM    PM
   E  E  E  E  E  E  E  E     E  E  E  E  E  E   E  E
---------------------------|---------------------------|
---------------------------|---------------------------|
---------------------------|---------------------------|
--10--9--------------------|-----9-----7-----9--10--9--|
---8--7--------------------|-----7-----5-----7---8--7--|
---------0--0--0--0--0--0--|--0-----0-----0------------|
---------------------------|---------------------------|

      PM PM PM   PM PM PM   PM PM PM                PM          PM
  E   S  S  S  S S  S  S  S S  S  S  S E      E  E  E   Q    E  E  E
-------------------------------------------|---------------------------|
-------------------------------------------|---------------------------|
-------------------------------------------|---------------------------|
--5\-----------------------------------5\--|--L--4-----10----9-----5\--|
--7\-----------------------------------7\--|--L--5------8----7-----7\--|
------0--0--0----0--0--0----0--0--0--------|--------0---8----7--0------|
-------------------------------------------|---------------------------|

     PM PM PM   PM PM PM   PM PM PM               PM         PM
  E  S  S  S  S S  S  S  S S  S  S  S E     E  E  E  Q    E  E  E
-----------------------------------------|-------------------------|
-----------------------------------------|-------------------------|
-----------------------------------------|-------------------------|
--L-----------------------------------5--|--L--4-----7----5-----2--|
--L-----------------------------------7--|--L--5-----5----3-----3--|
-----0--0--0----0--0--0----0--0--0-------|--------0--5----3--0-----|
-----------------------------------------|-------------------------|

     PM PM PM   PM PM PM   PM PM PM               PM         PM
  E  S  S  S  S S  S  S  S S  S  S  S E     E  E  E  Q    E  E  E
-----------------------------------------|-------------------------|
-----------------------------------------|-------------------------|
-----------------------------------------|-------------------------|
--L-----------------------------------4--|--L--5-----5----7-----9--|
--L-----------------------------------2--|--L--3-----3----5-----7--|
-----0--0--0----0--0--0----0--0--0----2--|--L--3--0--3----5--0-----|
-----------------------------------------|-------------------------|

         PM PM PM PM PM PM    PM    PM    PM
   E  E  E  E  E  E  E  E     E  E  E  E  E  E   E  E     W
---------------------------|---------------------------|----------------|
---------------------------|---------------------------|----------------|
---------------------------|---------------------------|----------------|
--10--9--------------------|-----9-----7-----9--10--9--|--2-------------|
---8--7--------------------|-----7-----5-----7---8--7--|--2-------------|
---------0--0--0--0--0--0--|--0-----0-----0------------|--0-------------|
---------------------------|---------------------------|----------------|

  W                   W                   W                   W
-------------------|-------------------|-------------------|------------|
-------------------|-------------------|-------------------|------------|
-------------------|--4----------------|--L----------------|------------|
--L----------------|--3----------------|--L----------------|--2---------|
--L----------------|--2----------------|--L----------------|--2---------|
--L----------------|-------------------|-------------------|--0---------|
-------------------|-------------------|-------------------|------------|

                                          Tempo = 144
                                                      PM   PM
                     "black hearts now reign"         |----3----|
  W                   W                   H           Q    Q    Q
-------------------|-------------------|-----------------------------|
-------------------|-------------------|-----------------------------|
-------------------|--4----------------|--L--------------------------|
--L----------------|--3----------------|--L--------------------------|
--L----------------|--2----------------|--L--------------------------|
--L----------------|-------------------|--------------2----2----2----|
-------------------|-------------------|--------------0----0----0----|

              PM PM         PM PM PM PM    PM   PM PM
  H        E  S  S  Q       S  S  S  S  E  S  S S  S  E  Q
-------------------------|------------------------------------|
-------------------------|------------------------------------|
-------------------------|------------------------------------|
--------------------5----|------------------------------------|
--------------------3----|------------------------------------|
--L--------L--2--2-------|--2--2--2--2-----2----2--2----------|
--L--------L--0--0-------|--0--0--0--0-----0----0--0----------|

     PM PM         PM PM         PM PM PM PM    PM   PM PM
  E  S  S  Q    E  S  S  Q       S  S  S  S  E  S  S S  S  E  Q
------------------------------|------------------------------------|
------------------------------|------------------------------------|
------------------------------|------------------------------------|
------------------------------|------------------------------------|
-------------------------3----|------------------------------------|
-----2--2----------2--2--3----|--2--2--2--2-----2----2--2----------|
-----0--0----------0--0--1----|--0--0--0--0-----0----0--0----------|

     PM PM         PM PM         PM PM PM PM      PM   PM
                                                  |----3----|
  E  S  S  Q    E  S  S  Q       S  S  S  S  Q    Q    Q    Q
------------------------------|----------------------------------|
------------------------------|----------------------------------|
------------------------------|----------------------------------|
------------------------------|----------------------------------|
-------------------------3----|----------------------------------|
-----2--2----------2--2--3----|--2--2--2--2-------2----2----2----|
-----0--0----------0--0--1----|--0--0--0--0-------0----0----0----|

                              Riff 8 1st time
                PM PM         PM           PM PM        PM PM PM
  H        Q    S  S   E      S            S  S  E.  E  S  S  S  E.  E
---------------------------|--------------------------------------------|
---------------------------|--------------------------------------------|
---------------------------|--------------------------------------------|
---------------------------|--------------------------------------------|
---------------------------|-------------------------5---------------5--|
--L--------L---------------|---------------------7---------------7------|
--L--------L----0--0--13\--|--0------------0--0---------0--0--0---------|

  PM PM PM        PM PM PM           PM PM PM         PM PM PM
  S  S  S  E.  E  S  S  S  E.  E     S  S  S   E.  E  S  S  S   E.  E
----------------------------------|------------------------------------|
----------------------------------|------------------------------------|
----------------------------------|------------------------------------|
----------------------------------|------------------------------------|
---------------4---------------4--|----------------9----------------9--|
-----------5---------------5------|-----------10---------------10------|
--0--0--0---------0--0--0---------|--0--0--0----------0--0--0----------|

  PM PM PM        PM PM PM
  S  S  S  E.  E  S  S  S  E.  E
----------------------------------|
----------------------------------|
----------------------------------|
----------------------------------|
---------------7---------------7--|
-----------9---------------9------|
--0--0--0---------0--0--0---------|

  Riff 8 2nd time
  PM              PM PM        PM PM PM
  S               S  S  E.  E  S  S  S  E.  E
-----------------------------------------------|
-----------------------------------------------|
-----------------------------------------------|
-----------------------------------------------|
----------------------------5---------------5--|
------------------------7---------------7------|
--0---------------0--0---------0--0--0---------|

  PM PM PM        PM PM PM           PM PM PM         PM PM PM
  S  S  S  E.  E  S  S  S  E.  E     S  S  S   E.  E  S  S  S   E.  E
----------------------------------|------------------------------------|
----------------------------------|------------------------------------|
----------------------------------|------------------------------------|
----------------------------------|------------------------------------|
---------------4---------------4--|----------------9----------------9--|
-----------5---------------5------|-----------10---------------10------|
--0--0--0---------0--0--0---------|--0--0--0----------0--0--0----------|

  PM PM PM        PM PM PM
  S  S  S  E.  E  S  S  S  E.  E
----------------------------------|
----------------------------------|
----------------------------------|
----------------------------------|
---------------7---------------7--|
-----------9---------------9------|
--0--0--0---------0--0--0---------|

  Riff 8 3rd time
  PM              PM PM        PM PM PM
  S               S  S  E.  E  S  S  S  E.  E
-----------------------------------------------|
-----------------------------------------------|
-----------------------------------------------|
-----------------------------------------------|
----------------------------5---------------5--|
------------------------7---------------7------|
--0---------------0--0---------0--0--0---------|

  PM PM PM        PM PM PM           PM PM PM         PM PM PM
  S  S  S  E.  E  S  S  S  E.  E     S  S  S   E.  E  S  S  S   E.  E
----------------------------------|------------------------------------|
----------------------------------|------------------------------------|
----------------------------------|------------------------------------|
----------------------------------|------------------------------------|
---------------4---------------4--|----------------9----------------9--|
-----------5---------------5------|-----------10---------------10------|
--0--0--0---------0--0--0---------|--0--0--0----------0--0--0----------|

  PM PM PM        PM PM PM
  S  S  S  E.  E  S  S  S  E.  E
----------------------------------|
----------------------------------|
----------------------------------|
----------------------------------|
---------------7---------------7--|
-----------9---------------9------|
--0--0--0---------0--0--0---------|

  Riff 8 4th time
  PM              PM PM        PM PM PM
  S               S  S  E.  E  S  S  S  E.  E
-----------------------------------------------|
-----------------------------------------------|
-----------------------------------------------|
-----------------------------------------------|
----------------------------5---------------5--|
------------------------7---------------7------|
--0---------------0--0---------0--0--0---------|

  PM PM PM        PM PM PM           PM PM PM         PM PM PM
  S  S  S  E.  E  S  S  S  E.  E     S  S  S   E.  E  S  S  S   E.  E
----------------------------------|------------------------------------|
----------------------------------|------------------------------------|
----------------------------------|------------------------------------|
----------------------------------|------------------------------------|
---------------4---------------4--|----------------9----------------9--|
-----------5---------------5------|-----------10---------------10------|
--0--0--0---------0--0--0---------|--0--0--0----------0--0--0----------|

  PM PM PM        PM PM PM
  S  S  S  E.  E  S  S  S  E.  E     Q     H.              W
----------------------------------|---------------------|---------------|
----------------------------------|---------------------|---------------|
----------------------------------|---------------------|---------------|
----------------------------------|--9\-----------------|---------------|
---------------7---------------7--|--9\-----------------|---------------|
-----------9---------------9------|--7\-----------------|---------------|
--0--0--0---------0--0--0---------|---------------------|---------------|

  Riff 9
  PM     PM PM PM PM PM                   PM PM PM PM PM PM
  |----3----|  |--3--|  |----3----|       |--3--|  |--3--|  |----3----|
  E      E  E  E  E  E  Q    Q    Q       E  E  E  E  E  E  Q    Q    Q
---------------------------------------|--------------------------------|
---------------------------------------|--------------------------------|
---------------------------------------|--------------------------------|
------------------------9----7----9----|--------------------9----7----9-|
------------------------7----5----7----|--------------------7----5----7-|
--0------0--0--0--0--0-----------------|--0--0--0--0--0--0--------------|
---------------------------------------|--------------------------------|

  PM PM PM PM PM PM                     PM PM PM PM PM PM
  |--3--|  |--3--|   |-----3----|       |--3--|  |--3--|   |-----3----|
  E  E  E  E  E  E   Q    Q     Q       E  E  E  E  E  E   Q    Q     Q
-------------------------------------|----------------------------------|
-------------------------------------|----------------------------------|
-------------------------------------|----------------------------------|
--------------------10----9----10----|--------------------10----9----10-|
---------------------8----7-----8----|---------------------8----7-----8-|
--0--0--0--0--0--0-------------------|--0--0--0--0--0--0----------------|
-------------------------------------|----------------------------------|

  PM PM PM PM PM PM                      PM PM PM PM PM PM
  |--3--|  |--3--|   |-----3-----|      |--3--|  |--3--|   |-----3-----|
  E  E  E  E  E  E   Q     Q     Q      E  E  E  E  E  E   Q     Q     Q
--------------------------------------|---------------------------------|
--------------------------------------|---------------------------------|
--------------------------------------|---------------------------------|
--------------------12----11----12----|-------------------12----11----12|
--------------------10-----9----10----|-------------------10-----9----10|
--0--0--0--0--0--0--------------------|-0--0--0--0--0--0----------------|
--------------------------------------|---------------------------------|

                         Riff 9 2nd time
                         PM              PM PM PM PM PM
                         |---------3--------|  |--3--|  |----3----|
  Q    Q    Q    Q       E               E  E  E  E  E  Q    Q    Q
----------------------|------------------------------------------------|
----------------------|------------------------------------------------|
----------------------|------------------------------------------------|
--9----7--------------|---------------------------------9----7----9----|
--7----5----7---------|---------------------------------7----5----7----|
------------5----5----|--0---------------0--0--0--0--0-----------------|
-----------------3----|------------------------------------------------|

  PM PM PM PM PM PM                   PM PM PM PM PM PM
  |--3--|  |--3--|  |----3----|       |--3--|  |--3--|   |-----3----|
  E  E  E  E  E  E  Q    Q    Q       E  E  E  E  E  E   Q    Q     Q
-----------------------------------|----------------------------------|
-----------------------------------|----------------------------------|
-----------------------------------|----------------------------------|
--------------------9----7----9----|--------------------10----9----10-|
--------------------7----5----7----|---------------------8----7-----8-|
--0--0--0--0--0--0-----------------|--0--0--0--0--0--0----------------|
-----------------------------------|----------------------------------|

  PM PM PM PM PM PM                     PM PM PM PM PM PM
  |--3--|  |--3--|   |-----3----|       |--3--|  |--3--|   |-----3-----|
  E  E  E  E  E  E   Q    Q     Q       E  E  E  E  E  E   Q     Q     Q
-------------------------------------|----------------------------------|
-------------------------------------|----------------------------------|
-------------------------------------|----------------------------------|
--------------------10----9----10----|--------------------12----11----12|
---------------------8----7-----8----|--------------------10-----9----10|
--0--0--0--0--0--0-------------------|--0--0--0--0--0--0----------------|
-------------------------------------|----------------------------------|

  PM PM PM PM PM PM
  |--3--|  |--3--|   |-----3-----|
  E  E  E  E  E  E   Q     Q     Q       Q    Q    Q    Q
--------------------------------------|----------------------|
--------------------------------------|----------------------|
--------------------------------------|----------------------|
--------------------12----11----12----|--9----7--------------|
--------------------10-----9----10----|--7----5----7---------|
--0--0--0--0--0--0--------------------|------------5----5----|
--------------------------------------|-----------------3----|

  Outro (rthym gtr)
  PM PM PM PM            PM PM PM PM
  |--3--|  |--3--|  |--3--|  |--3--|
  E  E  E  E  E  E  E  E  E  E  E  E
--------------------------------------|
--------------------------------------|
--------------------------------------|
--------------------------------------|
--2--2--2--2--------------2--2--2--2--|
--0--0--0--0--------------0--0--0--0--|
--------------------------------------|

  PM PM PM PM       PM PM PM PM        PM PM PM PM            PM PM PM PM
  |--3--|  |--3--|  |--3--|  |--3--|   |--3--|  |--3--| |--3--|  |--3--|
  E  E  E  E  E  E  E  E  E  E  E  E   E  E  E  E  E  E E  E  E  E  E  E
-------------------------------------|----------------------------------|
-------------------------------------|----------------------------------|
-------------------------------------|----------------------------------|
-------------------------------------|----------------------------------|
--2--2--2--2--------2--2--2--2-------|-3--3--3--3-------------3--3--3--3|
--0--0--0--0--------0--0--0--0-------|-1--1--1--1-------------1--1--1--1|
-------------------------------------|----------------------------------|

  PM PM PM PM       PM PM PM PM        PM PM PM PM            PM PM PM PM
  |--3--|  |--3--|  |--3--|  |--3--|   |--3--|  |--3--| |--3--|  |--3--|
  E  E  E  E  E  E  E  E  E  E  E  E   E  E  E  E  E  E E  E  E  E  E  E
-------------------------------------|----------------------------------|
-------------------------------------|----------------------------------|
-------------------------------------|----------------------------------|
-------------------------------------|----------------------------------|
--3--3--3--3--------3--3--3--3-------|-5--5--5--5-------------5--5--5--5|
--1--1--1--1--------1--1--1--1-------|-3--3--3--3-------------3--3--3--3|
-------------------------------------|----------------------------------|

  PM PM PM PM       PM PM PM PM
  |--3--|  |--3--|  |--3--|  |--3--|
  E  E  E  E  E  E  E  E  E  E  E  E     Q    Q    Q    Q
--------------------------------------|----------------------|
--------------------------------------|----------------------|
--------------------------------------|----------------------|
--------------------------------------|--9----7--------------|
--5--5--5--5--------5--5--5--5--------|--7----5----7---------|
--3--3--3--3--------3--3--3--3--------|------------5----5----|
--------------------------------------|-----------------3----|

  PM PM PM PM            PM PM PM PM
  |--3--|  |--3--|  |--3--|  |--3--|
  E  E  E  E  E  E  E  E  E  E  E  E
--------------------------------------|
--------------------------------------|
--------------------------------------|
--------------------------------------|
--2--2--2--2--------------2--2--2--2--|
--0--0--0--0--------------0--0--0--0--|
--------------------------------------|

  PM PM PM PM       PM PM PM PM        PM PM PM PM            PM PM PM PM
  |--3--|  |--3--|  |--3--|  |--3--|   |--3--|  |--3--| |--3--|  |--3--|
  E  E  E  E  E  E  E  E  E  E  E  E   E  E  E  E  E  E E  E  E  E  E  E
-------------------------------------|----------------------------------|
-------------------------------------|----------------------------------|
-------------------------------------|----------------------------------|
-------------------------------------|----------------------------------|
--2--2--2--2--------2--2--2--2-------|-3--3--3--3-------------3--3--3--3|
--0--0--0--0--------0--0--0--0-------|-1--1--1--1-------------1--1--1--1|
-------------------------------------|----------------------------------|

  PM PM PM PM       PM PM PM PM        PM PM PM PM            PM PM PM PM
  |--3--|  |--3--|  |--3--|  |--3--|   |--3--|  |--3--| |--3--|  |--3--|
  E  E  E  E  E  E  E  E  E  E  E  E   E  E  E  E  E  E E  E  E  E  E  E
-------------------------------------|----------------------------------|
-------------------------------------|----------------------------------|
-------------------------------------|----------------------------------|
-------------------------------------|----------------------------------|
--3--3--3--3--------3--3--3--3-------|-5--5--5--5-------------5--5--5--5|
--1--1--1--1--------1--1--1--1-------|-3--3--3--3-------------3--3--3--3|
-------------------------------------|----------------------------------|

  PM PM PM PM       PM PM PM PM
  |--3--|  |--3--|  |--3--|  |--3--|
  E  E  E  E  E  E  E  E  E  E  E  E     Q    Q    Q    Q
--------------------------------------|----------------------|
--------------------------------------|----------------------|
--------------------------------------|----------------------|
--------------------------------------|--9----7--------------|
--5--5--5--5--------5--5--5--5--------|--7----5----7---------|
--3--3--3--3--------3--3--3--3--------|------------5----5----|
--------------------------------------|-----------------3----|

  W
-------------------||
-------------------||
-------------------||
--2----------------||
--2----------------||
--0----------------||
-------------------||

outro: (lead gtr)

  |--3--|  |--3--|  |--3--|  |--3--|   |--3--|  |--3--|  |--3--|  |--3--|
  E  E  E  E  E  E  E  E  E  E  E  E   E  E  E  E  E  E  E  E  E  E  E  E
-------------------------------------|-----------------------------------|
-------------------------------------|-----------------------------------|
--------4--7--5--4--5--4-----4-------|-------4--7--5--4--5--4-----4------|
-----5--------------------7-----7--5-|----5--------------------7-----7--5|
--7----------------------------------|-7---------------------------------|
-------------------------------------|-----------------------------------|
-------------------------------------|-----------------------------------|

  |--3--|  |--3--|  |--3--|  |--3--|   |--3--|  |--3--|  |--3--|  |--3--|
  E  E  E  E  E  E  E  E  E  E  E  E   E  E  E  E  E  E  E  E  E  E  E  E
-------------------------------------|-----------------------------------|
-----------6--5----------------------|----------6--5---------------------|
--------5--------7--5--4-----4-------|-------5--------7--5--4-----4------|
-----7--------------------7-----7--5-|----7--------------------7-----7--5|
--8----------------------------------|-8---------------------------------|
-------------------------------------|-----------------------------------|
-------------------------------------|-----------------------------------|

  |--3--|  |--3--|  |--3--|  |--3--|   |--3--|  |--3--|  |--3--|  |--3--|
  E  E  E  E  E  E  E  E  E  E  E  E   E  E  E  E  E  E  E  E  E  E  E  E
-------------------------------------|-----------------------------------|
-----------8--6--5--6--5-----5-------|----------8--6--5--6--5-----5------|
-----4--7-----------------7-----7--5-|----4--7-----------------7-----7--5|
--5----------------------------------|-5---------------------------------|
-------------------------------------|-----------------------------------|
-------------------------------------|-----------------------------------|
-------------------------------------|-----------------------------------|

  |--3--|  |--3--|  |--3--|  |--3--|   |--3--|  |--3--|  |--3--|  |--3--|
  E  E  E  E  E  E  E  E  E  E  E  E   E  E  E  E  E  E  E  E  E  E  E  E
-------------------------------------|-----------------------------------|
--5--3-----3--5--6--5--3-----3--5--6-|-----------------------------------|
--------4-----------------5----------|-------4--7--5--4--5--4-----4------|
-------------------------------------|----5--------------------7-----7--5|
-------------------------------------|-7---------------------------------|
-------------------------------------|-----------------------------------|
-------------------------------------|-----------------------------------|

  |--3--|  |--3--|  |--3--|  |--3--|   |--3--|  |--3--|  |--3--|  |--3--|
  E  E  E  E  E  E  E  E  E  E  E  E   E  E  E  E  E  E  E  E  E  E  E  E
-------------------------------------|-----------------------------------|
-------------------------------------|----------6--5---------------------|
--------4--7--5--4--5--4-----4-------|-------5--------7--5--4-----4------|
-----5--------------------7-----7--5-|----7--------------------7-----7--5|
--7----------------------------------|-8---------------------------------|
-------------------------------------|-----------------------------------|
-------------------------------------|-----------------------------------|

  |--3--|  |--3--|  |--3--|  |--3--|   |--3--|  |--3--|  |--3--|  |--3--|
  E  E  E  E  E  E  E  E  E  E  E  E   E  E  E  E  E  E  E  E  E  E  E  E
-------------------------------------|-----------------------------------|
-----------6--5----------------------|----------8--6--5--6--5-----5------|
--------5--------7--5--4-----4-------|----4--7-----------------7-----7--5|
-----7--------------------7-----7--5-|-5---------------------------------|
--8----------------------------------|-----------------------------------|
-------------------------------------|-----------------------------------|
-------------------------------------|-----------------------------------|

  |--3--|  |--3--|  |--3--|  |--3--|   |--3--|  |--3--|  |--3--|  |--3--|
  E  E  E  E  E  E  E  E  E  E  E  E   E  E  E  E  E  E  E  E  E  E  E  E
-------------------------------------|-----------------------------------|
-----------8--6--5--6--5-----5-------|-5--3-----3--5--6--5--3-----3--5--6|
-----4--7-----------------7-----7--5-|-------4-----------------5---------|
--5----------------------------------|-----------------------------------|
-------------------------------------|-----------------------------------|
-------------------------------------|-----------------------------------|
-------------------------------------|-----------------------------------|

  3
  W
--------------------||
--5\----------------||
--------------------||
--------------------||
--------------------||
--------------------||
--------------------||

Duration Legend
---------------
W - whole
H - half
Q - quarter
E - 8th
S - 16th
T - 32nd
X - 64th
. - note dotted
|-n-|  - n-tuplets

Tablature Legend
----------------
L - tied note
x - dead note
g - grace note
(n) - ghost note
> - accentuded note
NH - natural harmonic
AH - artificial harmonic
TH - tapped harmonic
SH - semi harmonic
PH - pitch harmonic
h - hammer on
p - pull off
b - bend
br - bendRelease
pb - preBend
pbr - preBendRelease
brb - bendReleaseBend
\n/ - tremolo bar dip
\n - tremolo bar dive
-/n - tremolo bar Release up
/n\ - tremolo bar inverted dip
/n - tremolo bar return
-\n - tremolo bar Release down
S - shift slide
s - legato slide
/ -  slide into from below or out of upwards
\ -  slide into from above or out of downwards
~ - vibrato
W - wide vibrato
tr - trill
TP - tremolo picking
T - tapping
S - slap
P - pop
< - fade in
^ - brush up
v - brush down





Comments


Popular Unearth tabs & chords
Endless Bass Tabs
This Lying World Bass Tabs
Bloodlust Of The Human Condition Tabs
Chosen Tabs
Chosen 1 Tabs
Endless Tabs
Failure Tabs
My Desire (Solo) Tabs
Sanctity Of Brothers Tabs
Zombie Autopilot 5 Tabs


Song lyrics



↑ Back to top | Tablatures and chords are parodies/interpretations of the original songs. You may use it for private study, scholarship, research or language learning purposes only
© 2014 AZChords.com Contact us | Privacy policy | DMCA | Add/correct tabs | Request tabs | Top 50 tabs