>
 >
Black Hearts Now Reign

Black Hearts Now Reign Guitar Tabs

Unearth - Black Hearts Now Reign chords, tabs, tablatures, lyrics

Guitar lessons | Add/correct | Request | Top 50 tabs Artists:  A B C D E F G H I J K L M N O P Q R S T U V W X Y Z 0-9

Black Hearts Now Reign Guitar Tabs – Unearth

CD, Sheet music, Poster

Do you like Black Hearts Now Reign? Share with your friends now
TabsTabs v2
Band-Unearth
Song-Black Hearts Now Reign
Album-The Oncoming Storm
Label-Metal Blade Records

Tuning- B F# B E G# C#

()-ghost note.You can hit it but you dont have to.
\ -slide up
/ -slide down

This is most of the tab.I think there is only 1 or 2 parts missing and Im working on right now.
This is the first single of their lastest release.

Intro
|-----------------------------------------------------|
|-----------------------------------------------------|
|-----------------------------------------------------|
|-12//--------12/--10/----12/---------12/---10/---8/--|
|-10//--------10/---8/----10/---------10/----8/---6/--|
|------0-0-000---0-(8/)-0-----0-0-000-----0-(8/)-(6/)-|
Pm     . . ...   .      .     . . ...     .

Intro (Con't)
|------------------------------------------------------|
|------------------------------------------------------|
|------------------------------------------------------|
|----------8\----10/--12\13/12----------12-10-12\13/12-|
|----------6\-----8/--10\11/10----------10-8--10\11/10-|
|-0-0-000-(6\)-0-(8/)----------0-00-0-0----------------|
Pm. . ...      .               . .. . .

Interlude 1 (working on)

Interlude 2 (somthing like that)
|----------------------------------------------|
|----------------------------------------------|
|----------------------------------------------|
|----------------------------------------------|
|--------5h8------10p8p7-------5h8-12/10p8-7h8-|
|-0-000-0---0-00-0------0-000-0----------------|
PM. ... .   . .. .      . ... .

Interlude 3 (working on)

Interlude 4 (Gtr.1) (strum for however long is needed)
|------------|
|------------|
|-12----13---|
|--x-----x---|
|-10----11---|
|------------|

Interlude 4 (Gtr.2) (let notes ring)
|------------|
|------------|
|------------|
|-5~----6~---|
|-5~----6~---|
|-5~----6~---|


Breakdown
|--------|-------------|
|--------|-------------|
|--------|-------------|
|--------|----7--------|
|--------|----5--------|
|-0-0-0~-|--00--000-00-|
PM. . .     ..  ... ..

Interlude 5
|------------------------------------------------------|
|------------------------------------------------------|
|------------------------------------------------------|
|------------------------------------------------------|
|----5h8---5h8---3h7---3h7---8h12---8h12---7h10---7h10-|
|-000---000---000---000---000----000----000----000-----|
Pm...   ...   ...   ...   ...    ...    ...    ...

Interlude 5 (Gtr.1) (play after playing above riff twice) (strum for however long is needed)
|----------------|
|----------------|
|-14--12--17--16-|
|--x---x---x---x-|
|-12--10--15--14-|
|----------------|

Interlude 6 (Gtr.1)
|-----------------------------------------------------------|
|-----------------------------------------------------------|
|-----------------------------------------------------------|
|-12------12/10\12------12/10\12------13/12\13------13/12\13|
|-10------10/-8\10------10/-8\10------11/10\11------11/10\11|
|----0000-----------0000---------0000----------0000---------|

Interlude 6 (Gtr.1) (Con't)
|---------------------------------------|
|---------------------------------------|
|---------------------------------------|
|-----15/14\15-----15/14\15--12-10------|
|-----13/12\13-----13/12\13--10-8--10-8-|
|0000---------0000-----------------10-8-|

Interlude 6 (Gtr.2)
|------------------------------------------------|
|------------------------------------------------|
|------------------------------------------------|
|-12---12/10\12---12/10\12---13/12\13---13/12\13-|
|-10---10/-8\10---10/-8\10---11/10\11---11/10\11-|
|------------------------------------------------|

Interlude 6 (Both Guitars)
|-----------------------------------------------------------|
|-----------------------------------------------------------|
|-----------------------------------------------------------|
|-12------12/10\12------12/10\12------13/12\13------13/12\13|
|-10------10/-8\10------10/-8\10------11/10\11------11/10\11|
|----0000-----------0000---------0000----------0000---------|
Pm   ....           ....         ....          ....

Interlude 6 (Both Guitars) (Con't)
|----------------------------------------|
|----------------------------------------|
|----------------------------------------|
|------15/14\15-----15/14\15--12-10------|
|------13/12\13-----13/12\13--10-8--10-8-|
|-0000---------0000-----------------10-8-|
Pm....         ....     


Interlude 7 (play under guitar solo)
|--------------------------------------------------------------------------|
|--------------------------------------------------------------------------|
|--------------------------------------------------------------------------|
|--------------------------------------------------------------12-10-------|
|--------------------------------------------------------------10--8--10-8-|
|-555--5-5-5-5555-555--777--7-7-7-777-777--888--8-8-8-8888-888--------10-8-|
PM...  . . . .... ...  ...  . . . ... ...  ...  . . . .... ...

End On
|-------|
|-------|
|-------|
|-12//--|
|-10//--|
|-------|





Comments


Popular Unearth tabs & chords
My Desire Bass Tabs
My Heart Bleeds No Longer 3 Bass Tabs
Shattered By The Sun Bass Tabs
Failure Tabs
My Will Be Done Intro Tabs
Only The People Tabs
So It Goes Intro Tabs
The Great Dividers 1 Tabs
This Glorious Nightmare Tabs
This Lying World 1 Tabs


Song lyrics



↑ Back to top | Tablatures and chords are parodies/interpretations of the original songs. You may use it for private study, scholarship, research or language learning purposes only
© 2014 AZChords.com Contact us | Privacy policy | DMCA | Add/correct tabs | Request tabs | Top 50 tabs