» » »

Undertones, True Confessions Tabs (ver.1)

Artists:  A B C D E F G H I J K L M N O P Q R S T U V W X Y Z # 

True Confessions Tabs (ver.1)

Undertones Tabs
 Rating:
4/5 (4 votes)
True Confessions lessons Tabs too difficult? Try these video lessons and learn fast
                True Confessions. Seen as one off the undertones best songs. I learned this the other 
at the concert in the nerve centre. im nearly sure this is how it goes. I dont know the 
yet. Sorry but this is my first tab so go easy on me.

VERSE:
e||--------------------------------------------------------------------------||
B||--------------------------------------------------------------------------||
G||--------------------------------------------------------------------------||
D||8-8-8-8-8-8-8-8/-3-8-8-8-8-8-8-8-8/-3-------------------------------------||
A||8-8-8-8-8-8-8-8/-3-8-8-8-8-8-8-8-8/-3-------------------------------------||
E||6-6-6-6-6-6-6-6/-1-6-6-6-6-6-6-6-6/-1-------------------------------------||
 Play this 4 times as your intro. This continues up to the chorus.

CHORUS:
e||----------------------------------------------------------------------||
B||----------------------------------------------------------------------||
G||----------------------------------------------------------------------||
D||5-5-5-5-5-8-8-8-------------------------------------------------------||
A||5-5-5-5-5-8-8-8-------------------------------------------------------||
E||3-3-3-3-3-6-6-6-------------------------------------------------------||

Play twice. Listen to song for strumming pattern

Solo will be added on a later date. If anyone has any suggstions please tell me 
Thanks enjoy


Don't look so surprised
You've been telling me lies
True - true - true - confessions

Its hard to wake up to your makeup
So let's take off that disguise
True - true - true - confessions

Let's sit down and sort this out
Its not so hard to talk about
True - true - true - confessions

I got a picture from your sister
There was writing on the back
True - true - true - confessions
            
Submit corrections

comments powered by Disqus
↑ Back to top | Undertones Tabs for True Confessions. Lyrics for acoustic guitar and electric guitar. Tablatures and chords are parodies/interpretations of the original songs. You may use it for private study, scholarship, research or language learning purposes only