» » »

Undertones, Teenage Kicks Tabs (ver.1)

Artists:  A B C D E F G H I J K L M N O P Q R S T U V W X Y Z # 

Teenage Kicks Tabs (ver.1)

Undertones Tabs
 Rating:
3.8/5 (38 votes)
Teenage Kicks lessons Tabs too difficult? Try these video lessons and learn fast
1
                i thought i'd put this up,as our band cover it,im gonna put it up from the one i tabbed from the cd,but if you listen to the vinyl its played 1 fret up.
song-teenge kicks
band-the undertones

ITNRO/VERSE
e|----------------------|
B|----------------------|
G|-11----11---8----10---| im pretty sure the chords are played 10 times,it might be
D|-12----10---9----11---| 11 times,just listen to the rhythm of the song
A|-12----10---9----11---|
E|-10----9----7----9----|
 (x10) (x2) (x10) (x2)

CHORUS
e|-----------------------|
B|-----------------------|
G|-6----4----5----6------| just listen to the cd for the rhythm
D|-7----5----6----7------|
A|-7----5----6----7------|
E|-5----3----4----5------|
 (x2) (x10) (x2) (x10)

for the first solo just fool about with the chords
2ND SOLO ^-BEND
e|------------------------------------------------------------------|
B|----------10-12^-10-12^-10-12^-10-------------7-9^-7-9^-7-9^-7----|
G|----------10-12--10-12--10-12--10-------------7-9--7-9--7-9--7----| play this 
D|----------------------------------12----------7----------------9--| twice
A|-------12----------------------------------9----------------------|
E|-10-10---------------------------------7-7------------------------|

OUTRO
e|--------------------|
B|--------------------|
G|-11---4---6---11----|
D|-12---5---7---12----|
A|-12---5---7---12----|
E|-10---3---5---10----|
 (x3) (x3) (x3) (x1)
thats it just work out the rythm and order yourself
PLEASE RATE THIS!!!!
            
Submit corrections

comments powered by Disqus
↑ Back to top | Undertones Tabs for Teenage Kicks. Lyrics for acoustic guitar and electric guitar. 1 Tablatures and chords are parodies/interpretations of the original songs. You may use it for private study, scholarship, research or language learning purposes only