» » »

Undertones, Here Comes The Summer Tabs (ver.1)

Artists:  A B C D E F G H I J K L M N O P Q R S T U V W X Y Z # 

Here Comes The Summer Tabs (ver.1)

Undertones Tabs
 Rating:
4/5 (5 votes)
Here Comes The Summer lessons Tabs too difficult? Try these video lessons and learn fast
                -----------------------------------------------------------------------------   
                    Here comes the summer-The Undertones
-----------------------------------------------------------------------------
Instrument: Electric Guitar

Tuning: Standard (E A D G B E)

GUITAR I(rhythm guitar) & GUITAR II (lead guitar)

intro
E|---------------------|
B|---------------------|
G|-----------7-7-9-9-9-|
D|--7-7-4-4--7-7-9-9-9-|
A|--7-7-4-4--5-5-7-7-7-|
E|--5-5-2-2------------|

verse
E|-----------------------------------------------------------------|
B|-----------------------------------------------------------------|
G|-----------------------------------------------------------------|
D|-7-7-7-7-7-7-7-7-4-4-4-4-4-4-4-4-3-3-3-3-3-3-3-3-2-2-2-2-2-2-2-2-|
A|-7-7-7-7-7-7-7-7-4-4-4-4-4-4-4-4-3-3-3-3-3-3-3-3-2-2-2-2-2-2-2-2-|
E|-5-5-5-5-5-5-5-5-2-2-2-2-2-2-2-2-5-5-5-5-5-5-5-5-0-0-0-0-0-0-0-0-|

E|----------------------------------------------------------------|
B|----------------------------------------------------------------|
G|--------------------------------7-7-7-7-7-7-7-7-9-9-9-9-9-9-9-9-|
D|-7-7-7-7-7-7-7-7-4-4-4-4-4-4-4-47-7-7-7-7-7-7-7-9-9-9-9-9-9-9-9-|
A|-7-7-7-7-7-7-7-7-4-4-4-4-4-4-4-45-5-5-5-5-5-5-5-7-7-7-7-7-7-7-7-|
E|-5-5-5-5-5-5-5-5-2-2-2-2-2-2-2-2--------------------------------|

chorus
E|--------------------------------|
B|--------------------------------|
G|--------------------------------|
D|-7-7-7-7-4-4-4--2-2-2-2-2-2-2-2-|
A|-7-7-7-7-4-4-4--2-2-2-2-2-2-2-2-|
E|-5-5-5-5-2-2-2--0-0-0-0-0-0-0-0-|

solo
GUITAR I (rhythm guitar)

backing
E|------------------------------------------------------------------|
B|------------------------------------------------------------------|
G|-6-6-6-6-6-6-6-6-2-2-2-2-2-2-2-2-6-6-6-6-6-6-6-6-2-2-2-2-2-2-2-2--|
D|-6-6-6-6-6-6-6-6-2-2-2-2-2-2-2-2-6-6-6-6-6-6-6-6-2-2-2-2-2-2-2-2--|
A|-4-4-4-4-4-4-4-4-0-0-0-0-0-0-0-0-4-4-4-4-4-4-4-4-0-0-0-0-0-0-0-0--|
E|------------------------------------------------------------------|

E|------------------------------------------------------------------|
B|------------------------------------------------------------------|
G|-6-6-6-6-6-6-6-6-4-4-4-4-4-4-4-4-2-2-2-2-2-2-2-2-4-4-4-4-4-4-4-4--|
D|-6-6-6-6-6-6-6-6-4-4-4-4-4-4-4-4-2-2-2-2-2-2-2-2-4-4-4-4-4-4-4-4--|
A|-4-4-4-4-4-4-4-4-2-2-2-2-2-2-2-2-0-0-0-0-0-0-0-0-2-2-2-2-2-2-2-2--|
E|------------------------------------------------------------------|


GUITAR II (lead guitar)

E|------------------------------------------------------------------|
B|------------------------------------------------------------------|
G|-10-10-13p12h13--6-6-9b-6--10-10-13p12h13--6-6-7b--10-11-13p12h13-|
D|-11-11-----------7-7-------11-11-----------7-7-----10-11----------|
A|------------------------------------------------------------------|
E|------------------------------------------------------------------|

E|------------------------------------------------------------------|
B|------------------------------------------------------------------|
G|-8-8-11b-8--6-6-9p6h9p6--8-8-11-8---------------------------------|
D|-9-9--------7-7----------9-9--------------------------------------|
A|------------------------------------------------------------------|
E|------------------------------------------------------------------|


order:
intro   X 2
verse   X 1
chorus  X 3
verse   X 1
chorus  X 3
solo    X 1   
chorus  X 3
verse   X 1
chorus  X keep playing until fades out
            
Submit corrections

comments powered by Disqus
↑ Back to top | Undertones Tabs for Here Comes The Summer. Lyrics for acoustic guitar and electric guitar. Tablatures and chords are parodies/interpretations of the original songs. You may use it for private study, scholarship, research or language learning purposes only