» » »

Moving For The Sake Of Motion Tabs

Artists:  A B C D E F G H I J K L M N O P Q R S T U V W X Y Z # 

Moving For The Sake Of Motion Tabs

(ver. 1)
Underoath Tabs
 Rating:
4/5 (4 votes)
    Moving For The Sake Of Motion lessons Tabs too difficult? Try these video lessons and learn fast
                            Moving For the Sake of Motion
            (words and music by UNDEROATH)
            my first tab.... rate and comment please

                                INTRO
e-------------------------------------|
b-------------------------------------|
g------9----11---12---------14----14--|  x2  (strum each chord accordingly)
d------x----x----x----12----x-----x---|
a------7----9----9----10----12----x---|
D---------------------------------9---|

                               VERSE
e---------------------------------|
b---------------------------------|
g-----9---12---14---11---16---21--| (strum each chord accordingly)
d-----x---x----x----x----x----x---|
a-----7---10---12---9----14---19--|
D---------------------------------|

e---------------------------------|
b---------------------------------|
g---------------------------------|
d--4---4----4-------0----0---0----|
a----5---5----5---9----9---9------|
D---------------------------------|

e---------------------------------|
b---------------------------------|
g-----9---12---14---11---16---21--| (strum each chord accordingly)
d-----x---x----x----x----x----x---|
a-----7---10---12---9----14---19--|
D---------------------------------|

e---------------------------------------------------------------|
b---------------------------------------------------------------|
g---------------------------------------------------------------|
d--4---4----4-------0----0---0----0----0----0---0---0-----------|
a----5---5----5---9----9---9---12---14---14---9---9---9/0-------|
D---------------------------------------------------------------|

e---------------------------------|
b---------------------------------|
g------0-0-0-----0-0-0------------| x4
d---2--4-4-4--2--4-4-4------------|
a---2---------2-------------------|
D---2---------2---------4p0-4p0---|

e----7p5p0------------------5p0----7p5p0-----------------------------|
b----------8p0----5h7-0h5h7-----3--------8p0-----5h7-----------------|
g--------------7p0---------------------------7p0----------0---0---0--|
d-----------------------------------------------------0h2---4---4----|
a--------------------------------------------------------------------|
D--------------------------------------------------------------------|

e---------------------------------------------|
b---------------------------------------------|
g----------0-0-0---------0-0-0----------------|  x4
d----------4-4-4---------4-4-4----------------|
a---------------------------------------------|
D----14/0----------14/0----------16p0--16p0---|

                            CHORUS
e-------------------------------------|
b-------------------------------------|
g------9----11---12---11----14----12--|  x2  (strum each chord accordingly)
d------x----x----x----12----x-----x---|
a------7----9----9----10----12----x---|
D---------------------------------9---|

                            BRIDGE
e---7-0---0-----7-0---0-------------------3-0-3-5----|
b-------7---7-8-----7---7-8---7--8--10--3------------|
g---------------------------0---7--9--2--------------| x2
d----------------------------------------------------|
a----------------------------------------------------|
D----------------------------------------------------|

e---7p0-------------------------7p0-------------------------|
b-------8p0--10p0--7---7-8-10-------8p0--10p0--7---10-7-8---|
g--------------------7---------------------------7----------| x2
d-----------------------------------------------------------|
a-----------------------------------------------------------|
D-----------------------------------------------------------|

e---7-0---0-----7-0---0-------------------3-0-3------|
b-------7---7-8-----7---7-8---7--8--10--3------------|
g---------------------------0---7--9--2--------------|
d----------------------------------------------------|
a----------------------------------------------------|
D----------------------------------------------------|

e---0---0---------------------------|
b---5---7---17--19------------------|
g-----------0---0-------------------|(strum each note accordingly)
d-----------------------------------|
a-----------------------------------|
D------------------------------19/0-|

       ENDING
e---------------|
b---------------|
g----------0----| x12
d-------2--4----|
a-------2-------|
D-------2-------|

e---------------------------------------------|
b---------------------------------------------|
g----------0-0-0---------0-0-0----------------|  x4
d----------4-4-4---------4-4-4----------------|
a---------------------------------------------|
D----14/0----------14/0----------16p0--16p0---|
            
Submit corrections

↑ Back to top | Underoath Tabs for Moving For The Sake Of Motion. Lyrics for acoustic guitar and electric guitar. Tablatures and chords are parodies/interpretations of the original songs. You may use it for private study, scholarship, research or language learning purposes only