» » »

Underoath, Impact Of Reason Tabs (ver.2)

Artists:  A B C D E F G H I J K L M N O P Q R S T U V W X Y Z # 

Impact Of Reason Tabs (ver.2)

Underoath Tabs
 Rating:
4/5 (4 votes)
Impact Of Reason lessons Tabs too difficult? Try these video lessons and learn fast
1
                


Guitar 1: Intro:part1
e|------------------------------------|
b|------------------------------------|
g|----0--------0--------0--------0----|
d|--4----4-4-4----4-4-4----4-4-4--4---|
a|-2-2----2-2-2----2-2-2----2-2-2--2--|
e|------------------------------------|

Guitar2: Intro:part1 (silent first time)
e|------------------------------------|
b|------------------------------------|
g|------------------------------------|
d|-9----------------------------------|
a|-9-(strum)--------------------------|
e|-7----------------------------------|

Guitar 1: Intro:part2
e|------------------------------------|
b|------------------------------------|
g|----2~-------2~---------------------|
d|--2----2-2-2------------------------|
a|-0-0----0-0-0-----------------------|
e|------------------------------------|

Guitar 2: Intro:part2
e|-------------------------------------|
b|-------------------------------------|
g|-------------------------------------|
d|-7-----------------------------------|
a|-7-(strum)---------------------------|
e|-5-----------------------------------|

Guitar 1: Intro:part3
e|------------------------------------|
b|------------------------------------|
g|------------------------------------|
d|------------------------------------|   ?
a|------------------------------------|
e|------------------------------------|

Guitar 2:part3
e|------------------------------------|
b|------------------------------------|
g|------------------------------------|
d|-5----------------------------------|
a|-5-(strum)--------------------------|
e|-3----------------------------------|

________________________________________________________

Guitar 1 and 2: Verse1:
e|------------------------------------|
b|------------------------------------|
g|-4-------2--------------------------|
d|-4-(x48)-2-(strum)-5----------------|   x2
a|-2-------0---------5-(strum)--------|
e|-------------------3----------------|
   ^-down strokes
________________________________________________________

Guitar 1: Bridge1:part1
e|------------------------------------|
b|------------------------------------|
g|-4-444------4444--------------------|
d|-4-444-(x4)-4444-24-----------------|
a|-2-222------2222-24-----------------|
e|-----------------02-----------------|

Guitar 2: Bridge1:part1 (silent)

Guitar 1: Bridge:part2
e|-2-0-2-0-2-0-2-0-2-0-2-0-2-0-2-0-2-0-2-0-2-0-2-0--|
b|--3-3-3-3-3-3-3-3-3-3-3-3-3-3-3-3-3-3-3-3-3-3-3-3-|
g|--------------------------------------------------|
d|--------------------------------------------------|
a|--------------------------------------------------|
e|--------------------------------------------------|

Guitar 2: Bridge1:part2
e|-----------------|
b|-----------------|
g|-----------------|
d|-5-7-9-4---------|   x2
a|-5-7-9-4---------|
e|-3-5-7-2---------|

Guitar 1: Bridge1:part3
e|-0h1-11-00-------|
b|-3---33-33-------|
g|-----------------|
d|-----------------|   x7
a|-----------------|
e|-----------------|

Guitar 2: Bridge1:part3
e|-----------------|
b|-----------------|
g|-----------------|
d|-5-7-9-4---------|   x2
a|-5-7-9-4---------|
e|-3-5-7-2---------|

________________________________________________________

Guitar 1:verse2:part1
e|----------------------------------------------------|
b|----------------------------------------------------|
g|----0--------0--------0--------0--------0--------0--|
d|--4----4-4-4----4-4-4----4-4-4----4-4-4----4-4-4----|
a|-2-2----2-2-2----2-2-2----2-2-2----2-2-2----2-2-2---|
e|----------------------------------------------------|

Guitar2:verse2:part1
e|------------------------------------|
b|------------------------------------|
g|------------------------------------|
d|-9----------------------------------|
a|-9-(strum)--------------------------|
e|-7----------------------------------|

Guitar 1:verse2:part2
e|------------------------------------|
b|------------------------------------|
g|----2~-------2~---------------------|
d|--2----2-2-2------------------------|
a|-0-0----0-0-0-----------------------|
e|------------------------------------|

Guitar 2:verse2:part2
e|-------------------------------------|
b|-------------------------------------|
g|-------------------------------------|
d|-7-----------------------------------|
a|-7-(strum)---------------------------|
e|-5-----------------------------------|

Guitar 1:verse2:part3
e|------------------------------------|
b|------------------------------------|
g|------------------------------------|
d|------------------------------------|   ?
a|------------------------------------|
e|------------------------------------|

Guitar 2:verse2:part3
e|------------------------------------|
b|------------------------------------|
g|------------------------------------|
d|-5----------------------------------|
a|-5-(strum)--------------------------|
e|-3----------------------------------|

Guitar 1:verse2:part1 (again)
e|----------------------------------------------------|
b|----------------------------------------------------|
g|----0--------0--------0--------0--------0--------0--|
d|--4----4-4-4----4-4-4----4-4-4----4-4-4----4-4-4----|
a|-2-2----2-2-2----2-2-2----2-2-2----2-2-2----2-2-2---|
e|----------------------------------------------------|

Guitar2:verse2:part1 (again)
e|------------------------------------|
b|------------------------------------|
g|------------------------------------|
d|-9----------------------------------|
a|-9-(strum)--------------------------|
e|-7----------------------------------|

Guitar 1:verse2:part2 (again)
e|------------------------------------|
b|------------------------------------|
g|----2~-------2~---------------------|
d|--2----2-2-2------------------------|
a|-0-0----0-0-0-----------------------|
e|------------------------------------|

Guitar 2:verse2:part2 (again)
e|-------------------------------------|
b|-------------------------------------|
g|-------------------------------------|
d|-7-----------------------------------|
a|-7-(strum)---------------------------|
e|-5-----------------------------------|

Guitar 1:verse2:part3 (again)
e|------------------------------------|
b|------------------------------------|
g|------------------------------------|
d|------------------------------------|   ?
a|------------------------------------|
e|------------------------------------|

Guitar 2:verse2:part3 (again)
e|------------------------------------|
b|------------------------------------|
g|------------------------------------|
d|-5----------------------------------|
a|-5-(strum)--------------------------|
e|-3----------------------------------|

_________________________________________________________________

Guitar 1: Bridge2:part1
e|------------------------------05---05---05---05---05---05---05---05-|
b|--03--0-03-03--03--0-03-03--03---03---03---03---03---03---03---03---|
g|-2-----2--2---2-----2--2---2----2----2----2----2----2----2----2-----|
d|--------------------------------------------------------------------|
a|--------------------------------------------------------------------|
e|--------------------------------------------------------------------|

Guitar 2: Bridge2:part1
e|------------------------------------|
b|------------------------------------|
g|------------------------------------|
d|-9---7---2---5----------------------| x2
a|-9---7---2---5----------------------|
e|-7---5---0---3----------------------|

Guitar 1: Bridge2:part2
e|-2---2---0--2---2---0--2---2---0--2---2---0--|
b|--30--30--3--30--30--3--30--30--3--30--30--3-|
g|---------------------------------------------|
d|---------------------------------------------|
a|---------------------------------------------|
e|---------------------------------------------|

Guitar 2: Bridge2:part2
e|------------------------------------|
b|------------------------------------|
g|------------------------------------|
d|-9------7------2------5-------------|
a|-9-(x8)-7-(x8)-2-(x8)-5-(x8)--------|
e|-7------5------0------3-------------|

_____________________________________________________________________

Guitar 1: Outro:part1
e|-----------------------|
b|-----------------------|
g|-----------------------|
d|-5-7-9-4---------------|   x2
a|-5-7-9-4---------------|
e|-3-5-7-2---------------|

Guitar 1: Outro:part2
e|-2222222222222222000000000000000555555555555555-
b|-3333333333333333333333333333333333333333333333-
g|------------------------------------------------|
d|------------------------------------------------|
a|------------------------------------------------|
e|------------------------------------------------|

Guitar 2: Outro:(plays during both part 1 and 2)
e|-----------------------|
b|-----------------------|
g|-----------------------|
d|-5-7-9-4---------------|   x4
a|-5-7-9-4---------------|
e|-3-5-7-2---------------|

Guitar 1 and 2: Outro:part3
e|------------------|
b|------------------|
g|------------------|
d|-5--(let ring)----|
a|-5----------------|
e|-3----------------|
            
Submit corrections

comments powered by Disqus
↑ Back to top | Underoath Tabs for Impact Of Reason. Lyrics for acoustic guitar and electric guitar. 1 Tablatures and chords are parodies/interpretations of the original songs. You may use it for private study, scholarship, research or language learning purposes only