» » »

Emergency Broadcast The End Is Near Bass tabs (ver.1)

Artists:  A B C D E F G H I J K L M N O P Q R S T U V W X Y Z # 

Emergency Broadcast The End Is Near Bass tabs (ver.1)

Underoath
Rating:
0/5 (0 votes)

Tabs too difficult? Try these video lessons and learn fast.
                -------------------------------------------------------------------------------
		 Emergency Broadcast: The End Is Near - Underoath
-------------------------------------------------------------------------------


 Tuning:Drop D

 x4
G|-------------------------------------------------------|
D|-------------------------------------------------------|
A|-------------------------------------------------------|
D|0000000000000000-/888-55555555555555555-/888-----------|

 x4
G|--------------------------------|
D|--------------------------------|
A|---1/5-5p3-3--------------------|
D|0------------3-3h5~--5p3--------|
 
 x1                x8
G|-----------------|--------------------------|
D|-----------------|--------------------------|
A|-----------------|--------------------------|
D|3333-00-0--------|-00-3333-00-0-------------|

 Pause
 
  x2 (2.07)
G|---------------------------------------------|
D|---------------------------------------------|
A|3h5----3-3h5------3h5------3-3h5-------------|
D|----------------------0----------------------|
 x4
G|------------------------------------------------|
D|------------------------------------------------|
A|3h5------------------3-3h5----------------------|
D|----0000000000000000-------0000000000000000-----|

 x4
G|-------------------------------------------|
D|-------------------------------------------|
A|-------------------------------------------|
D|0-0-0~--000-88888888888-5555-55-5p333------|

 x4
G|------------------------|
D|------------------------|
A|3/5-8-5~---3/5-8-10~----|
D|------------------------|
 x3                       x1
G|-----------------------|------------------|
D|-----------------------|------------------|
A|3/5-8-5~---3/5-8-10~---|12p10-8-----------|
D|-----------------------|------------------|
 x2
G|---------------------------------------------|
D|---------------------------------------------|
A|3h5-88888888---------------------------------|
D|-------------8888888888-1010101010101010-----|

 x6
G|-----------------|
D|-----------------|
A|-----------------|
D|0-0~-------------|

 x1
G|-----------------|
D|-----------------|
A|-----------------|
D|0----0~----------|
            
Tabs too difficult? Try these video lessons and learn fast.


comments powered by Disqus
↑ Back to top | Tablatures and chords are parodies/interpretations of the original songs. You may use it for private study, scholarship, research or language learning purposes only