» » »

Underoath, Emergency Broadcast The End Is Near Tabs (ver.1)

Artists:  A B C D E F G H I J K L M N O P Q R S T U V W X Y Z # 

Emergency Broadcast The End Is Near Tabs (ver.1)

Underoath Tabs
 Rating:
4/5 (4 votes)
Emergency Broadcast The End Is Near lessons Tabs too difficult? Try these video lessons and learn fast
                        Emergency Broadcast: The End Is Near - Underoath

Tuning: Drop D

0:31
play these chords in this order twice. listen for timing
e|--------------------------------6----------------|
B|------------6---------8---------8----------------|
G|--7---------7---------7---------7--------7-------|
D|--7---------7---------7---------7--------5-------|
A|--5---------5---------5---------5--------5-------|
D|-----------------------------------------5-------|
guitar 1
e|---------------------------------------------------|
B|---------------------------------------------------|
G|---------------------------------------------------|x2
D|--------------------------------------5------------|
A|----1/5----------5-------1/5------------5----------|
D|--0-----7-3-3h5--------0-----7--3-3h5--------------|
0:53  riff goes something like this
e|--------------------------------------------------------------|
B|----6-8----6-8------------------------------------------------|
G|--7------7-----9-----------5~-3~-//12^-10~-12~-9~-10~--7-7\5--|
D|--------------------3/8^~-------------------------------------|
A|--------------------------------------------------------------|
D|--------------------------------------------------------------|

1:21   both guitars 
e|--------------------------------------------|
B|--------------------------------------------|
G|--------------------------------------------|x4
D|--------------------------------------------|
A|---333^-0-0-0-333^-0-0-0--------------------|
D|---333^-0-0-0-333^-0-0-0--------------------|

guitar 1    1:51   play this heaps 
e|--------------------------------------------|
B|--------------------------------------------|
G|----7---7---7---7---------------------------|
D|--------------------------------------------|
A|--5---5---5---5-----------------------------|
D|--------------------------------------------|
    .   .   .   .
2:06
guitar 1
e|-----------------------------------------------------------|
B|-----------------------------------------------------------|
G|-----------------------------------------------------------|x1
D|----777777777777-888888888888--777777777777-888888888888---|
A|--3/555555555555-555555555555--555555555555-555555555555---|
D|-----------------------------------------------------------|
      ............ ............  ............ ............
guitar 2
e|-------------------------------------------------------------|
B|-------------------------------------------------------------|
G|--222222222h3333333333222222222233330000000022222222222222---|x2
D|--000000000-0000000000000000000000000000000000000000333333---|
A|-------------------------------------------------------------|
D|-------------------------------------------------------------|

2:21
guitar 1
e|-----5---6---5----------|
B|---6---6---6---5~-------|
G|------------------------|x4
D|------------------------|
A|------------------------|
D|------------------------|

2:35  guitar 2 play this heaps of times
e|----------------------------------------|
B|----------------------------------------|
G|----------------------------------------|
D|----------------------------------------|
A|--0-0--0-0--0-0--0-0--------------------|
D|--0-0--0-0--0-0--0-0--------------------|
    .    .    .    .
2:49
guitar 1      
e|---------------------------|
B|-3/10t-11t-13t-10t-8t------|
G|---------------------------|
D|---------------------------|
A|---------------------------|
D|---------------------------|

3:04     "feast your eyes..."
e|---------------------------------------------|
B|-----333-----------------333-----------------|
G|-----222-----------------222-----------------|x2
D|--00-000-333/888-55---00-000-333/888-55------|
A|--00-000-333/888-55---00-000-333/888-55-2^---|
D|--00-000-333/888-55---00-000-333/888-55-2^---|

3:37
guitar 1
e|-----------------------------------------------|
B|-----------------------------------------------|
G|---7-7-7-7-7-7-7-7-7-7-7-7-7-7-7-7-7-7-7-7-7---|
D|-----------------------------------------------|
A|-----------------------------------------------|
D|-----------------------------------------------|
guitar 2
e|---------8-------5~----------------------------|
B|-----6-------6---------------------------------|
G|---7---7---7---7-----5/7\5/7-5/7\5/7-----------|x6
D|-----------------------------------------------|
A|-----------------------------------------------|
D|-----------------------------------------------|

guitar 1   3:47
e|---------------------------------------------------|
B|---------------------------------------------------|
G|-----------7-3-5~------------7--------3-5----------|x3
D|---0-3-5^----------7\5/7\5-----3-5^-------7~-------|
A|---------------------------------------------------|
D|---------------------------------------------------|

guitar 2  4:17
e|------8----5---5-----------------------------------|
B|--------6----6---6----6-8--8-6-8-6-----------------|
G|---7----------------7------------------------------|x4
D|---------------------------------------------------|
A|---------------------------------------------------|
D|---------------------------------------------------|

     End
e|-------------------|
B|---//10t---8t------|
G|-------------------|
D|-------------------|
A|-------------------|
D|-------------------|


| .  palm mute
| /  slide up
| \  slide down
| h  hammer-on
| p  pull-off
| ~  vibrato
| +  harmonic
| x  Mute note
            
Submit corrections

comments powered by Disqus
↑ Back to top | Underoath Tabs for Emergency Broadcast The End Is Near. Lyrics for acoustic guitar and electric guitar. Tablatures and chords are parodies/interpretations of the original songs. You may use it for private study, scholarship, research or language learning purposes only