>
 >
Act Of Depression

Act Of Depression Guitar Tabs

Underoath - Act Of Depression chords, tabs, tablatures, lyrics

Guitar lessons | Add/correct | Request | Top 50 tabs Artists:  A B C D E F G H I J K L M N O P Q R S T U V W X Y Z 0-9

Act Of Depression Guitar Tabs – Underoath

CD, Sheet music, Poster

Do you like Act Of Depression? Share with your friends now
Bass TabsTabs
Hi, this is my first tab, but this song took me forever, its such a long song..
the Pm and the "." if u didnt already know, is when u Palm Mute

Part 1   0:00

e|---------------------------------|      
B|---------------------------------|
G|---------------------------------|        -This part is bass, but I 
D|---------------------------------|  x4     tabbed it anyway.
A|---------------------------------|
D|-4-5-4--0--1-----7-7-7-7-8-8-8-8-|
Pm . . .  .  .     . . . . . . . .  

Part 2   0:24

e|---------------------------------|
B|---------------------------------|
G|---------------------------------|
D|-4-5-4--0--1-----7-7-7-7-8-8-8-8-|  x2
A|-4-5-4--0--1-----7-7-7-7-8-8-8-8-|
D|-4-5-4--0--1-----7-7-7-7-8-8-8-8-|

         0:35 

e|---------------------------------|
B|---------------------------------|
G|---------------------------------|
D|-4-5-4--0--1-----7-7-7-7-8-8-8-8-|  x5
A|-4-5-4--0--1-----7-7-7-7-8-8-8-8-|
D|-4-5-4--0--1-----7-7-7-7-8-8-8-8-|
Pm . . .  .            

Part 3   1:02

e|-----------------------------------------------------|
B|-----------------------------------------------------|
G|-----------------------------------7-6-3-------------|
D|-4-5-4-0-1-0-4-5-4-0-0-0-7-8-7--0--x-x-x---0----0----|  x8
A|-4-5-4-0-1-0-4-5-4-0-0-0-7-8-7--0--5-4-1---0----0----|
D|-4-5-4-0-1-0-4-5-4-0-0-0-7-8-7--0----------0----0----|
Pm . . . . . . . . . . . .                   .    .  

Part 4   2:07

e|-------------------------------|
B|-------------------------------|
G|-------------------------------|
D|-4-5-4-0-1-0-4-5-4-0-0-0-7-8-7-|  x8
A|-4-5-4-0-1-0-4-5-4-0-0-0-7-8-7-|
D|-4-5-4-0-1-0-4-5-4-0-0-0-7-8-7-|
Pm . . . . . . . . . . . . 

Part 5   2:35

e|---------------------------------|
B|---------------------------------|
G|---------------------------------|
D|-6-0-0-0-5-0-0-0-3-0-0-0-3-5-6-0-|  x4
A|-6-0-0-0-5-0-0-0-3-0-0-0-3-5-6-0-|
D|-6-0-0-0-5-0-0-0-3-0-0-0-3-5-6-0-|
Pm   . . .   . . .   . . .       .

         2:47

e|---------------------------|
B|---------------------------|
G|---------------------------|
D|-6--0--5--0--3--0--3-5-6-0-|  x8
A|-6--0--5--0--3--0--3-5-6-0-|
D|-6--0--5--0--3--0--3-5-6-0-|
Pm .  .  .  .  .  .  . . . . 

Part 6   3:13

e|-----------------------------------------------------------------|
B|-----------------------------------------------------------------|
G|-----------------------------------------------------------------|
D|-0-0-0-0-0-0-0-0-0-0-0-0-0-0-0-0-1-1-1-1-1-1-1-1-1-1-1-1-1-1-1-1-| x2  
A|-0-0-0-0-0-0-0-0-0-0-0-0-0-0-0-0-1-1-1-1-1-1-1-1-1-1-1-1-1-1-1-1-|
D|-0-0-0-0-0-0-0-0-0-0-0-0-0-0-0-0-1-1-1-1-1-1-1-1-1-1-1-1-1-1-1-1-|
Pm . . . . . . . . . . . . . . . . . . . . . . . . . . . . . . . . 

         3:38

e|----------------------------------------------------------------|
B|----------------------------------------------------------------|
G|----------------------------------------------------------------|
D|-0--0-0--0--0-0--0--0-0--0--0-0--1--1-1--1--1-1--1--1-1--1--1-1-|    
A|-0--0-0--0--0-0--0--0-0--0--0-0--1--1-1--1--1-1--1--1-1--1--1-1-|
D|-0--0-0--0--0-0--0--0-0--0--0-0--1--1-1--1--1-1--1--1-1--1--1-1-|
Pm .  . .  .  . .  .  . .  .  . .  .  . .  .  . .  .  . .  .  . . 

         3:50

e|-------------------------------------------------------------------|
B|-------------------------------------------------------------------|
G|-------------------------------------------------------------------|
D|-0-0-0-0-0-0-0-0-0-0-0-0-0-0-0-0-1-1-1-1-1-1-1-1-1-1-1-1-1-1-1-1-0-|   
A|-0-0-0-0-0-0-0-0-0-0-0-0-0-0-0-0-1-1-1-1-1-1-1-1-1-1-1-1-1-1-1-1-0-|
D|-0-0-0-0-0-0-0-0-0-0-0-0-0-0-0-0-1-1-1-1-1-1-1-1-1-1-1-1-1-1-1-1-0-|
Pm . . . . . . . . . . . . . . . . . . . . . . . . . . . . . . . . 

Part 7   4:08

e|----------------------------------|
B|----------------------------------|
G|----------------------------------|
D|-------------3----------------4---| x2
A|----------------------------------|
D|-4-5-3-5-1-0---5--4-5-3-5-1-0---6-|
Pm . . . . . .   .  . . . . . .   .

Part    4:15

e|---------------------------------|
B|-------------5---------------6---|
G|-------------x---------------x---|
D|-4-5-3-5-1-0-3-5-4-5-3-5-1-0-4-6-| x8
A|-4-5-3-5-1-0---5-4-5-3-5-1-0---6-|
D|-4-5-3-5-1-0---5-4-5-3-5-1-0---6-|
Pm . . . . . .     . . . . . .


Part 8   4:40

e|-------------------------------------------------------------|
B|-------------------------------------------------------------|
G|----------------------------------------------------88888888-|
D|-000000000000000777777776677666666666666666666666666xxxxxxxx-| 
A|-00000000000000077777777667766666666666666666666666666666666-|
D|-000000000000000777777776677666666666666666666666666---------|
                                                                     x4
e|-------------------------------------------------------------|      
B|-------------------------------------------------------------|
G|-------------------------------------------------------------|
D|-0000000000000007777777766776666666666666666-1-0-1-0-1-0-6---|
A|-0000000000000007777777766776666666666666666-1-0-1-0-1-0-6---|
D|-0000000000000007777777766776666666666666666-1-0-1-0-1-0-6---|
Pm                                             . . . . . .

         5:37

e|---|
B|---|
G|---|
D|-0-| 
A|-0-|
D|-0-|

Part 9   5:41

e|----------------------|      
B|-9-8------------------|
G|-----7-9-10-9-7-9-7-6-|         
D|----------------------|  x4 
A|----------------------|
D|----------------------|

         5:49

e|-----|      
B|-----|
G|-----| 
D|-1-0-|
A|-1-0-|
D|-1-0-|
     
Part 10  5:50

e|----------------------|      
B|----------------------|
G|----------7-8-7-------|         
D|-0--5-4-0-------0-1-0-|  x14 
A|-0--5-4-0-------0-1-0-|
D|-0--5-4-0-------0-1-0-|
Pm    . . .

         6:35

e|---|          
B|---|          
G|---|          
D|-0-|          
A|-0-|
D|-0-|  

        6:36

e|---------------------------------|
B|---------------------------------|
G|---------------------------------|     -This part is in the
D|---------------------------------|  x2 background, and is bass            
A|---------------------------------|
D|-6-0-0-0-5-0-0-0-3-0-0-0-3-5-6-0-|
Pm   . . .   . . .   . . .       .      
                         
Part 11  6:41

e|------------------------------------|
B|------------------------------------|
G|------------------------------------|
D|-6-000000-5-000000-3-000000-3-5-6-0-|  x4
A|-6-000000-5-000000-3-000000-3-5-6-0-|
D|-6-000000-5-000000-3-000000-3-5-6-0-|
Pm   ......   ......   ...... 

Part 12  6:52

(Kids Laughing)

e|-----------------------------------------------------------------|      
B|-----7-----8-----10-----8-----7-------6-----6-----6-----6----6---|
G|-----------------------------------------------------------------|      
D|-----------------------------------------------------------------|  x2  
A|-9-9---9-9---9-9----9-9---9-9-----8-8---8-8---8-8---8-8---8-8--8-|
D|-----------------------------------------------------------------|

Part 13  7:04

e|----------------------------------------------|      
B|----------------------------------------------|
G|----------------------------------------------|         
D|----------------------------------------------| 
A|-----------------1212121212121212101010109999-|
D|-9999999999999999-----------------------------|
                                                     x2
e|----------------------------------------------|      
B|----------------------------------------------|
G|----------------------------------------------|         
D|----------------------------------------------| 
A|----------------------------------------------|
D|-88888888888888888888888888888888-------------|

         7:17

e|----------------------------------------------|      
B|----------------------------------------------|
G|----------------------------------------------|         
D|----------------------------------------------| 
A|-99999999999999991212121212121212101010109999-|
D|-99999999999999999999999999999999999999999999-|
                                                     x2
e|----------------------------------------------|      
B|----------------------------------------------|
G|----------------------------------------------|         
D|----------------------------------------------| 
A|-88888888888888888899998888111111-------------|
D|-88888888888888888888888888888888-------------|

Part 14  7:30

e|-------------------------------|      
B|-------------------------------|
G|-------------------------------|         
D|-----------------7-------6-----|  x3
A|-----5-------5-----8---------7-|
D|-0-0---0-0-0---0-----6-6---6---|
Pm . .   . . .   .     . .   .

         7:39

e|-----------------------------------|      
B|-----------------------------------|
G|-----------------------------------|         
D|-----------------7-----6-----------|  x11
A|-----5-------5-----8---------7-7-7-|
D|-0-0---0-0-0---0-----0----0--------|
Pm . .   . . .   .     .    .  . . .

Part 15  8:10

e|-----------------------------------------|      
B|-----------------------------------------|
G|-----------------------------------------|         
D|-2----------------1--------1-1--1-1-1--1-|  x2
A|-2----------------1--------1-1--1-1-1--1-|
D|-2----------------1--------1-1--1-1-1--1-|
Pm                           . .  . . . .

Part 15  8:22

e|-------------------------------------------------------------------|      
B|-------------------------------------------------------------------|
G|-------------------------------------------------------------------|      
D|-2-3-2-1-2-3-2-2-2-2-2-2-2-2-2-2-1-1-1-1-1-1-1-1-1-1-1-1-1-1-1-1-1-| x2
A|-2-3-2-1-2-3-2-2-2-2-2-2-2-2-2-2-1-1-1-1-1-1-1-1-1-1-1-1-1-1-1-1-1-|
D|-2-3-2-1-2-3-2-2-2-2-2-2-2-2-2-2-1-1-1-1-1-1-1-1-1-1-1-1-1-1-1-1-1-|
Pm . . . . . . . . . . . . . . .   . . . . . . . . . . . . . . . .  

         8:33

e|-------------------------------------------------------------------|      
B|-------------------------------------------------------------------|
G|-------------------------------------------------------------------|      
D|-2-3-2-1-2-3-2-1------------------1-2-1-0-1-2-1-0------------------| 
A|-2-3-2-1-2-3-2-1------------------1-2-1-0-1-2-1-0------------------|
D|-2-3-2-1-2-3-2-1------------------1-2-1-0-1-2-1-0------------------|
Pm . . . . . . . .                  . . . . . . . . 

         8:33

e|-------------------------------------------------------------------|      
B|-------------------------------------------------------------------|
G|-------------------------------------------------------------------|
D|-2-3-2-1-2-3-2-1------------------1-2-1-0-1-2-1-0-1-2-1-0-1-2-1-0--| 
A|-2-3-2-1-2-3-2-1------------------1-2-1-0-1-2-1-0-1-2-1-0-1-2-1-0--|
D|-2-3-2-1-2-3-2-1------------------1-2-1-0-1-2-1-0-1-2-1-0-1-2-1-0--|
Pm . . . . . . . .                  . . . . . . . . . . . . . . . .  

         8:45

e|-----------------------------------------------------------------|      
B|-----------------------------------------------------------------|
G|-----------------------------------------------------------------|    
D|-2-3-2-1-2-3-2-1-2-3-2-1-2-3-2-1-1-2-1-0-1-2-1-0-1-2-1-0-1-2-1-0-| x4
A|-2-3-2-1-2-3-2-1-2-3-2-1-2-3-2-1-1-2-1-0-1-2-1-0-1-2-1-0-1-2-1-0-|
D|-2-3-2-1-2-3-2-1-2-3-2-1-2-3-2-1-1-2-1-0-1-2-1-0-1-2-1-0-1-2-1-0-|
Pm . . . . . . . . . . . . . . . . . . . . . . . . . . . . . . . .  

Part 16  9:08 

e|-------------------------------------|      
B|-------------------------------------|
G|-------------------------------------|         
D|-0-1-4-0-------0-1-4-0------4-1-3-0--| x9
A|-0-1-4-0-------0-1-4-0---------------|
D|-0-1-4-0-------0-1-4-0---------------|
Pm . . . .       . . . .      . . . .  

Part 17  9:34

e|---------------------------------|      
B|---------------------------------|
G|---------------------------------|         
D|-0---1---4---1---0---1---4---1---| x8   -6th time starts to slow down. 
A|-0---1---4---1---0---1---4---1---|       
D|-0---1---4---1---0---1---4---1---|
Pm .   .   .   .   .   .   .   .        

End       10:07

e|---|      
B|---|
G|---|         
D|-0-| 
A|-0-|
D|-0-|

This is an awesome song by Underoath the best band in the world, again, please
inform me of any errors you see. thanks!
   





Comments


Popular Underoath tabs & chords
Writing On The Walls 3 Bass Tabs
Some Will Seek Forgiveness Others Escape 2 Chords
In Regards To Myself 2 Tabs
Ive Got Ten Friends And A Crowbar That Says You Cant Do Jack Tabs
Reinventing Your Exit 4 Tabs
Simac Tague Tabs
There Could Be Nothing After This Tabs
We Are The Involuntary Tabs
When The Sun Sleeps Tabs
Writing On The Walls 2 Tabs


Song lyrics



↑ Back to top | Tablatures and chords are parodies/interpretations of the original songs. You may use it for private study, scholarship, research or language learning purposes only
© 2014 AZChords.com Contact us | Privacy policy | DMCA | Add/correct tabs | Request tabs | Top 50 tabs