» » »

My Girlfriend Bass tabs (ver.2)

Artists:  A B C D E F G H I J K L M N O P Q R S T U V W X Y Z # 

My Girlfriend Bass tabs (ver.2)

Uncle Kracker
Rating:
0/5 (0 votes)

Hard to play? Try these video lessons and learn fast.
                verse
G|------------------------------------|
D|-------------------0-0-0-0----------|
A|----------1-1-1-1-----------3-3-3-3-|x6
E|-1-1-1-1----------------------------|

G|-----------------------------|
D|-----------------------------|
A|-111-111-111-111--333-333-33-|
E|-----------------------------|

Chorus 
G|------------------------------------|
D|-------------------0-0-0-0----------|
A|----------1-1-1-1-----------3-3-3-3-|x3
E|-1-1-1-1----------------------------|

G|----------------------|
D|----------------------|
A|------------------1-1-|
E|-3-3-3-3-3-3-3-3------|

pause

verse
G|------------------------------------|
D|-------------------0-0-0-0----------|
A|----------1-1-1-1-----------3-3-3-3-|x5
E|-1-1-1-1----------------------------|

G|-----------------------------|
D|-----------------------------|
A|-111-111-111-111--333-333-33-|
E|-----------------------------|

Chorus 
G|------------------------------------|
D|-------------------0-0-0-0----------|
A|----------1-1-1-1-----------3-3-3-3-|x3
E|-1-1-1-1----------------------------|

G|----------------------------------|
D|----------------------------------|
A|------------------1-1-1-1-1-1-1-1-|
E|-3-3-3-3-3-3-3-3------------------|

solo 
G|------------------------------------|
D|-------------------0-0-0-0----------|
A|----------1-1-1-1-----------3-3-3-3-|x3
E|-1-1-1-1----------------------------|

G|----------------------|
D|----------------------|
A|------------------1-1-|
E|-3-3-3-3-3-3-3-3------|

paues

bridge 
G|------------------------------------|
D|-------------------0-0-0-0----------|
A|----------1-1-1-1-----------3-3-3-3-|
E|-1-1-1-1----------------------------|

G|-----------------------|
D|-------------------0-0-|
A|----------1-1-1-1------|
E|-1-1-1-1---------------|

Chorus 
G|------------------------------------|
D|-------------------0-0-0-0----------|
A|----------1-1-1-1-----------3-3-3-3-|x3
E|-1-1-1-1----------------------------|

G|----------------------------------|
D|----------------------------------|
A|------------------1-1-1-1-1-1-1-1-|x2
E|-3-3-3-3-3-3-3-3------------------|

G|----------------------|
D|----------------------|
A|------------------1-1-|
E|-3-3-3-3-3-3-3-3------|

outro 
G|------------------------------------|
D|-------------------0-0-0-0----------|
A|----------1-1-1-1-----------3-3-3-3-|x4
E|-1-1-1-1----------------------------|

G|---|
D|---|
A|---|
E|-1-|
            
Hard to play? Try these video lessons and learn fast. | Correct




comments powered by Disqus
↑ Back to top | Tablatures and chords are parodies/interpretations of the original songs. You may use it for private study, scholarship, research or language learning purposes only