>
 >
In A Little While

In A Little While Guitar Tabs

Uncle Kracker - In A Little While chords, tabs, tablatures, lyrics

Guitar lessons | Add/correct | Request | Top 50 tabs Artists:  A B C D E F G H I J K L M N O P Q R S T U V W X Y Z 0-9

In A Little While Guitar Tabs – Uncle Kracker

CD, Sheet music, Poster

Do you like In A Little While? Share with your friends now
ChordsTabsTabs v2Ukulele
Tuning: standard (EADGBe)

Strum chords slowly, just listen to the song, you’ll get it

Intro
	         D5  D   A   G

e-----------------x---2---0---3-------------------x---2---0---3--------
B-----------------3---3---3---3-------------------3---3---3---3--------
G-----------------2---2---3---0-------------------2---2---3---0--------
D-----0-2-0-------0---0---3---0-------0-2-0-------0---0---3---0--------
A-0-2-------2-0-----------0---2---0-2-------2-0-----------0---2--------
E-----------------------------3-------------------------------3--------

e-----------------|  
B-----------------|  
G-----------------|    
D-----0-2-0-------|  
A-0-2-------2-0---|  
E-----------------|  



e-----------------|  
B-----------------| (Fig. 1)  
G-----------------|    
D-----0-2-0-------|  
A-0-2-------2-0---|  
E-----------------|  

Verse 1

D5       D              A    G
         Here’s to the good life, or so they say
         D5      D         A       G      (fig. 1)
         All those parties and games that all those people play
D5       D                     A        G
         They tell me this is the place to be
         D5        D          A          G
         All these beautiful people and nothing to see

Pre-chorus:

G                           D5
	Sometimes I feel like something is gone here, 
	G                        D5
	Something is wrong here, I don’t belong here,
	G		D5
	Sometimes I feel like a stranger in town
	G		         A	
	And I’ve lost what I found, it’ll all turn around

Chorus:

D		     G       G	
	In a little while I’ll be thinking about you
D		     G	    G
	In a little while I’ll still be here without you
D		   G    G			  	    
	You never gave me a reason to doubt you
D		      G       G			
	In a little while I’ll be thinking about you baby

(Insert fig. 1 at the end of the first chorus only)

(Pre-chorus)

(Chorus)

Solo:

e---5-7-10-7-10-12-14-14p12-10---| (repeat 3X)
B--------------------------------|
G--------------------------------|
D--------------------------------|
A--------------------------------|
E--------------------------------|

Then,

e---5-7-10-7-10-14p12-14p12-14p1214p1214p12-10h12p10---|
B------------------------------------------------------|
G------------------------------------------------------|
D------------------------------------------------------|
A------------------------------------------------------|
E------------------------------------------------------|

(Pre-chorus)

(Chorus)

(Play verse to end)

Lead guitar outro:
Note:  can also be inserted in various places in pre-chorus and  chorus

e---------------|
B---------------|
G---------------|
D---------------|
A-7h9-7-5-------|
E---------7-5---|





Comments


Popular Uncle Kracker tabs & chords
Follow Me Bass Tabs
Drift Away 1 Chords
Smile Chords
Smile (Piano for guitar) Chords
Smile 1 Chords
Follow Me 1 Tabs
Follow Me Intro 1 Tabs
In A Little While Ukulele
Memphis Soul Song Ukulele
Nobodys Sad On A Saturday Night Ukulele


Song lyrics



↑ Back to top | Tablatures and chords are parodies/interpretations of the original songs. You may use it for private study, scholarship, research or language learning purposes only
© 2014 AZChords.com Contact us | Privacy policy | DMCA | Add/correct tabs | Request tabs | Top 50 tabs