» » »

Were Going To Ibiza Tabs (ver.2)

Artists:  A B C D E F G H I J K L M N O P Q R S T U V W X Y Z # 

Were Going To Ibiza Tabs (ver.2)

Uncle Brian
Rating:
0/5 (0 votes)

Tabs too difficult? Try these video lessons and learn fast.
                This is the Lead riff which is also the solo

|-----------------------------------------|
|--------------------6--------------------|
|--6---6---6---6--8-----------------------|
|----6---6---6----------------------------|
|-----------------------------------------|
|-----------------------------------------|

|-----------------------------------------|
|-----------------------------------------|
|--3---3---3---3---5->6--6-6->5--3--------|
|----4---4---4----------------------------|
|-----------------------------------------|
|-----------------------------------------|
            
Tabs too difficult? Try these video lessons and learn fast.


comments powered by Disqus
↑ Back to top | Tablatures and chords are parodies/interpretations of the original songs. You may use it for private study, scholarship, research or language learning purposes only