» » »

Were Going To Ibiza Tabs (ver.1)

Artists:  A B C D E F G H I J K L M N O P Q R S T U V W X Y Z # 

Were Going To Ibiza Tabs (ver.1)

Uncle Brian
Rating:
0/5 (0 votes)

Hard to play? Try these video lessons and learn fast.
                UNCLE BRIAN  - WE'RE GOING TO IBIZA


VERSE
|--x4-x4-x4-x4--x2-x2-x2-x2-|
|--x6-x6-x6-x6--x2-x2-x2-x2-|
|--x6-x6-x6-x6--x3-x3-x3-x3-|
|--x6-x6-x6-x6--x4-x4-x4-x4-|
|---------------------------|
|---------------------------|

GTR2 VERSE
|-------------2-------------------|
|-2h3-2h3-3-5-----------0h2-0-----|
|---------------3h5-3h5-------5-3-| (X2)
|---------------------------------|
|---------------------------------|
|---------------------------------|

CHORUS
|-------------------|
|-------------------|
|-44444444----------| X4
|-44444444-44444444-|
|-22222222-44444444-|
|----------22222222-|

SOLO
|---------------------5------5---|
|-2h3-2-0--2h3-2-0--3---3--3---3-|
|--------------------------------| X4
|--------------------------------|
|--------------------------------|
|--------------------------------|

OUTRO
|----------22222222-|  |---------|
|----------22222222-|  |---------|
|-44444444-33333333-|X4|-6-6-6-6-|
|-44444444-44444444-|  |-6-6-6-6-|
|-22222222-44444444-|  |-4-4-4-4-|
|----------22222222-|  |---------|

VERSE X10 (WITH GTR2 1st 2 TIMES)
CHORUS
VERSE X6 (WITH GTR2 1st 2 TIMES)
CHORUS
VERSE X4 (WITH SOLO)
CHORUS
OUTRO
            
Hard to play? Try these video lessons and learn fast. | Correct




comments powered by Disqus
↑ Back to top | Tablatures and chords are parodies/interpretations of the original songs. You may use it for private study, scholarship, research or language learning purposes only