» » »

Umphreys Mcgee, Words Tabs (ver.1)

Artists:  A B C D E F G H I J K L M N O P Q R S T U V W X Y Z # 

Words Tabs (ver.1)

Umphreys Mcgee Tabs
Rating:
0/5 (0 votes)
Words lessons Tabs too difficult? Try these video lessons and learn fast
                Intro, play this twice

    Bbsus2                               Fmaj7  
  |--------------------------------------------------------------|
  |-------1------------------------------------1-----------------|
  |-------3------------------------------------2-----------------|
  |--------------------------------------------------------------|
  |-1------------------------------------------------------------|
  |--------------------------------------1-----------------------|
  |                                                              |
  |--------------------------------------------0-----------------|
  |-------1----------------------------------------1-------------|
  |-------0--------------------------------------------0---------|
  |----0--0------------------------------------------------------|
  |-1------------------------------------------------------------|
  |--------------------------------------1-----------------------|

    Bbsus2                               Fmaj7  
  |--------------------------------------------------------------|
  |-------1------------------------------------1-----------------|
  |-------3------------------------------------2-----------------|
  |--------------------------------------------------------------|
  |-1------------------------------------------------------------|
  |--------------------------------------1-----------------------|
  |                                                              |
  |--------------------------------------------0-----------------|
  |-------1----------------------------------------1-------------|
  |-------0--------------------------------------------0---------|
  |----0--0------------------------------------------------------|
  |-1------------------------------------------------------------|
  |--------------------------------------1-----------------------|

  |---------------------|
  |---------------------|
  |---------------------|
  |---------------------|
  |-1---0-------1---0---|
  |---------1---------1-|

Now into the verse

    Bbsus2      Fmaj7  
  |-------------0-------|
  |-1-----------1-------|
  |-3-----------2-------|
  |-3-----------3-------|
  |-1-----------3-------|
  |-------------1-------|

  Speechless again at a loss for words
  But they wouldn't be heard anyway would they
  The minimum required what the offer is
  And that's all you give

  |---------------------|
  |---------------------|
  |---------------------|
  |---------------------|
  |-1---0-------1---0---|
  |---------1---------1-|

  B5 > C5 > D5

Play this twice, 2nd time it ends about 1 beat early

    F/C             G/D
  |-5-5-5-----------7-7-7--------------------------------------------|
  |-6-6-6-----------8-8-8--------------------------------------------|
  |-5-5-5-----------7-7-7------------2-0---0-------------------------|
  |--------------------------------------3-----3-2-3---2-0-2---0-----|
  |--------------------------------------------------------------3-2-|
  |------------------------------------------------------------------|
  |                                                                  |
  |------------------------------------------------------------------|
  |------------------------------------------------------------------|
  |-5-5-5-----------7-7-7--------------------------------------------|
  |----------------------------------3-2-0-2---0---0-----------------|
  |-3-3-3-----------5-5-5------------------------3-----3-2-3---2-0---|
  |----------------------------------------------------------------3-|

    F/C             G/D                                      Bsus2
  |-5-5-5-------------7---7----------12----------12----------8-------|
  |-6-6-6-------------8---8----------10----------10----------11------|
  |-5-5-5-------------7---7----------12----------12----------10------|
  |------------------------------------------------------------------|
  |------------------------------------------------------------------|
  |------------------------------------------------------------------|
  |                                                                  |
  |------------------------------------------------------------------|
  |------------------------------------------------------------------|
  |-5-5-5-------------7---7----------2-----------2-----------3-------|
  |------------------------------------------------------------------|
  |-3-3-3-------------5---5----------0-----------0-----------1-------|
  |------------------------------1-3---------------------1-3---------|

  Bbsus2 > Fmaj7

  Stranded above all the friction here
  Your motives aren't clear enough to see

More of the F/C > G/D > F/C > G/D > Bsus2 part here, a little different but more or less the same

  I will be unstable
  I'm not just a passerby
  I hate sudden changes

  Bbsus2 > F

  Speechless again with no time to spare
  Could you pretend that you care just once for me
  At least for a while put your guards away
  There's no one to blame

  |---------------------|
  |---------------------|
  |---------------------|
  |---------------------|
  |-1---0-------1---0---|
  |---------1---------1-|

  |------------------------------------------------|
  |------------------------------------------------|
  |-2-3-2---5-3-2---3-2---3------------------------|
  |-------3-------3-----3--------------------------|
  |------------------------------------------------|
  |------------------------------------------------|

next part

  Bbsus2 > Dm > Csus4 > C > D > D/E > D/F > D/C
  Bbsus2 > Dm > Csus4 > C > D > D/C

can play these like this

   Bbsus2  Dm  Csus4   C   D   D/E   D/F   D/C
  -1-------1---1-------0-------------------------
  -1-------3---1-------1---3---3-----3-----3-----
  -3-------2---0-------0---2---2-----2-----2-----
  -3-------0---3-------2---0---2-----3-----------
  -1-----------3-------3-------------------3-----
  -----------------------------------------------

  Words can't hear this silent ear
  (Fear won't leave here first)
  Certain sigh

  Why frame time to time spent near
  (Nearness loses sight)
  Sight signed off

  Words can't hear this silent ear
  (Fear won't leave here first)
  Certain sigh

The last time, end on the D

next part
  Bbmaj7 > Em > Bbmaj7 > F#m > 
  Bbmaj7 > Em > Bbmaj7 > F#m > 
  F > F#m > F

play those like this
   Bbmaj7 Em F#m F
  -1------0--2---1--
  -3------0--2---1--
  -2------0--2---2--
  -3------2--4---3--
  -1------2--4---3--
  --------0--2---1--

this should get you going on the lead played over those chords

       Bbmaj7                                      Em 
  |-----------------------------------------------------------------------------------------|
  |-------15--------------15--------------15----------15-12-----------15-12-----------15-12-|
  |----12----14--------12----14--------12----14----12--------------12--------------12-------|
  |-12--------------12--------------12----------12--------------12--------------12----------|
  |-----------------------------------------------------------------------------------------|
  |-----------------------------------------------------------------------------------------|

       Bbmaj7                                     Fm
  |------------------------------------------------------------14--16--17--16h17p16-14-16----------|
  |-------15--------------15--------------15----------------14----------------------------17-17b19~|
  |----12----14--------12----14--------12----14----------14----------------------------------------|
  |-12--------------12--------------12----------------16-------------------------------------------|
  |------------------------------------------------------------------------------------------------|
  |------------------------------------------------------------------------------------------------|

and so on, until

  E > E/F# > E/G# > Asus2

  Your words occur to me sometimes
  Behind the reasons why we're here
  And walk on a clear wire
  Trapeze Jesus cautious and slow
  So quick to lunge brain to tongue
  To find I'm the only one
  The only one that's fit to choose
  Another side another tool
  And what makes up your silver spoon
  That makes you want to live again

Can play those like this

    E > E/F# > E/G# > Asus2
  |-0---0------0------0------|
  |-0---0------0------0------|
  |-1---1------1------2------|
  |-2---2------2------2------|
  |-2---2------2------0------|
  |-0---2------4-------------|

Here's the start of the lead, thanks Jon Mitchell
 
  |-------12----------12-------|
  |----------12----------12----|
  |----------------------------|
  |----14----------14----------|
  |-14----------14-------------|
  |----------------------------|
            
Submit corrections

comments powered by Disqus
↑ Back to top | Umphreys Mcgee Tabs for Words. Lyrics for acoustic guitar and electric guitar. Tablatures and chords are parodies/interpretations of the original songs. You may use it for private study, scholarship, research or language learning purposes only