>
 >
Uncommon

Uncommon Guitar Tabs

Umphreys Mcgee - Uncommon chords, tabs, tablatures, lyrics

Guitar lessons | Add/correct | Request | Top 50 tabs Artists:  A B C D E F G H I J K L M N O P Q R S T U V W X Y Z 0-9

Uncommon Guitar Tabs – Umphreys Mcgee

CD, Sheet music, Poster

Do you like Uncommon? Share with your friends now
Tabs
  E--------------------------------|----------------------------------|
  B--------------------------------|----------------------------------|
  G--------------------------------|----------------------------------|
  D---------2---2-----------2---2--|---------2---2-----------2--2-----|
  A---2-2-2-0---0---2---2---0---0--|---2-2-2-0---0---2---2---0--0-----|
  E---0-0-0---------0---0----------|---0-0-0---------0---0------------|

  E--------------------------------|--------------------------------|
  B--------------------------------|--------------------------------|
  G--------------------------------|--------------------------------|
  D--------------------------------|---------2---2------------------|
  A---7-7-7-7-6-6-----5-5-5-5-4-4--|---2-2-2-0---0---2--------------|
  E---7-7-7-7-7-7-----5-5-5-5-5-5--|---0-0-0---------0--------------|

This 2nd riff joins the first here...

  E--------------------------------|--------------------------------|
  B--------------------------------|--------------------------------|
  G---8-8-8-11--11--8---8----------|---8-8-8-11--11--8---8----------|
  D---6-6-6-9---9---6---6---9---9--|---6-6-6-9---9---6---6---9---9--|
  A-------------------------7---7--|-------------------------7---7--|
  E-0------------------------------|-0------------------------------|

  E--------------------------------|--------------------------------|
  B--------------------------------|--------------------------------|
  G--------------------------------|--------------------------------|
  D--------------------------------|---------2---2------------------|
  A---7-7-7-7-6-6-----5-5-5-5-4-4--|---2-2-2-0---0---2--------------|
  E---7-7-7-7-7-7-----5-5-5-5-5-5--|---0-0-0---------0--------------|

  Something about me stinks
  something about me smells
  I don't want that to be, how you remember me
  Something about me stinks

  If I was not so strange
  if I can only change
  I wouldn't be so far, from standing where you are
  If I was not so strange

Play this twice...

  E--------------------------------|--------------------------------|
  B--------------------------------|--------------------------------|
  G---8-8-8-11--11--8---8----------|---6-6-6-9---9-----4-4-4-7---7--|
  D---6-6-6-9---9---6---6---9---9--|---4-4-4-7---7-----2-2-2-5---5--|
  A-------------------------7---7--|--------------------------------|
  E-0------------------------------|-0--------------0---------------|

Then back to the verse, same as the first...

  Every way I look is south
  Everywhere I look is south
  If I could tune my vision out, I could hear you nice and loud
  Everywhere I look is south

  Something about me's weak
  if I could only tweak
  myself from the inside out, I could turn my life around
  if I was not so weak

Now this...

  E--------------------------------|--------------------------------|
  B--------------------------------|--------------------------------|
  G---------4-------4---4---2---4--|-5-5---------------------5---7--|
  D-2-2-----4h6p4---4h6-4h6-2---4--|-5-5-----5-------5---5---5---7--|
  A-2-2-----------7---------0---2--|-3-3-----5h7p5---5h7-5h7-3---5--|
  E-0-0----------------------------|---------------8----------------|

  E--------------------------------|--------------------------------|
  B--------------------------------|--------------------------------|
  G---------4-------4---4------2-4-|-5-5-----------------5---7---9--|
  D-2-2-----4h6p4---4h6-4h6----2-4-|-5-5-----5-------5---5---7---9--|
  A-2-2-----------7------------0-2-|-3-3-----5h7p5---5h7-3---5---7--|
  E-0-0----------------------------|---------------8----------------|

  E                           C
  Doesn't have to be the only way to common ground
  E                           C
  Absence was an option only waiting to be found
          E                               C
  But the further that I float along, the sooner I could sink
             E                           C
  And in the end it only matters if you feel that you could think of me the same


Then this 4 times, the last time just hold the B thru the end of the last measure...

    B               G       A   C    B               G       A   C
  E--------------------------------|--------------------------------|
  B--------------------------------|--------------------------------|
  G--------------------------------|--------------------------------|
  D-4-4---4-4---------------2---2--|-4-4---4-4---------------2---2--|
  A-2-2---2-2-------2---2---0---3--|-2-2---2-2-------2---2---0---3--|
  E-----------------3---3----------|-----------------3---3----------|

Or this works just as good in place of the last riff...

  E--------------------------------|--------------------------------|
  B--------------------------------|--------------------------------|
  G--------------------------------|--------------------------------|
  D-9-9---9-9-------5---5---7---10-|-9-9---9-9-------5---5---7---10-|
  A-9-9---9-9-------5---5---7---10-|-9-9---9-9-------5---5---7---10-|
  E-7-7---7-7-------3---3---5---8--|-7-7---7-7-------3---3---5---8--|


Then back to the beginning, with these lyrics...

  Every way I look is south
  everywhere I look is south
  If I could tune my vision out, I could hear you nice and loud
  Every way I look is south

  Something about me stinks
  something about me smells
  I don't want that to be, how you remember me
  Something about me stinks

Here's a riff Jake uses a lot to finish off a verse or whenever...

  E--------------------------------|--------------------------------|
  B--------------------------------|--------------------------------|
  G-4-2-0--------------------------|--------------------------------|
  D-------4-2-0--------------------|--------------------------------|
  A-------------4-2-0--------------|--------------------------------|
  E-------------------4-2-0--------|--------------------------------|

Thanks to Logan "bonhamdrummer" for this one:
This lick (at 1:56) is all triplets. I have the eighth note count notated above it. It 
on the And of 4.

   +        1        +        2        +        3        +
e|----------------------------------------------------------------|
B|-------------------------------------------------12-14-15-12-14-|
G|-------------------------------11-14-11----11-14----------------|
D|-------12-14-12----------12-14----------14----------------------|
A|-12-14----------14-12-14----------------------------------------|
E|----------------------------------------------------------------|

   4        +        1        +        2        +
e|----------------15-------15-17----15-17-------17^^-|
B|-15/17-15-17/19----17-19-------19------------------|
G|---------------------------------------------------|
D|---------------------------------------------------|
A|---------------------------------------------------|
E|---------------------------------------------------|





Comments


Popular Umphreys Mcgee tabs & chords
The Weight Around Chords
2nd Shelf Tabs
Andy's Last Beer Tabs
Bridgeless Tabs
Bullhead City Tabs
Glory Tabs
Jajunk Tabs
Mulchees Odyssey Tabs
Mulches Odyssey Tabs
Walletsworth 1 Tabs


Song lyrics



↑ Back to top | Tablatures and chords are parodies/interpretations of the original songs. You may use it for private study, scholarship, research or language learning purposes only
© 2014 AZChords.com Contact us | Privacy policy | DMCA | Add/correct tabs | Request tabs | Top 50 tabs