» » »

The Weight Around Chords (ver.1)

Artists:  A B C D E F G H I J K L M N O P Q R S T U V W X Y Z # 

The Weight Around Chords (ver.1)

Umphreys Mcgee
Rating:
5/5 (1 vote)

Hard to play? Try these video lessons and learn fast.
                
    E      Bbdim   Asus2   * sometimes he adds a slide up to this A chord (
  |-0------0-------0-------0-------|
  |-0------0-------0-------0-------|
  |-1------3-------2------/6-------|
  |-2------2-------2------/7-------|
  |-2------1-------0------/7-------|
  |-0---------------------/5-------|

  When you come round looking don't expect a thing
  Nothing here is sacred worth not remembering
  There's no justifying burying your voice
  All that I'm implying is hidden in the choice

    C#m    Bsus2   Asus2
  |-4------2-------0-----|
  |-5------2-------0-----|
  |-6------4-------2-----|
  |-6------4-------2-----|
  |-4------2-------0-----|
  |----------------------|

  I'm done with all the things that bring me down (Patch me up and roll me over)
  And you could say the same as me right now (Every wall will crumble down)
  The truth to self is always hard to tell (Check your habits at the door)
  Yours will be a face remembered well

Quick solo then repeat chords

  The minute you remember I'll be where I was
  Apologizing often, it never seems enough

  If the words would surface I'd scream now (Let me be part of this plan)
  So I hope you're worth the wait around (If I'm not I understand)
  There's never been enough time to slow down
  I promise more when I get back in town
            
Hard to play? Try these video lessons and learn fast. | Correct




comments powered by Disqus
↑ Back to top | Tablatures and chords are parodies/interpretations of the original songs. You may use it for private study, scholarship, research or language learning purposes only