» » »

Umphreys Mcgee, Jajunk Tabs (ver.1)

Artists:  A B C D E F G H I J K L M N O P Q R S T U V W X Y Z # 

Jajunk Tabs (ver.1)

Umphreys Mcgee Tabs
Rating:
0/5 (0 votes)
Jajunk lessons Tabs too difficult? Try these video lessons and learn fast
                This first part is in 7/4 time...

  E--------------------------------|
  B--------------------------------|
  G--------------------------------|
  D--------------------------------|
  A---1---4---6-----1---4---6------|
  E-0-2---5---7---0-2---5---7------|

Here's the lead played over the previous riff...

*The first notes (C# & A#) of each line are tremolo picked,           *
*I marked each as being played 4 times but it is really more than that*

Also, I'm pretty sure that the lower riff, the one starting on the A string,
actually possibly both riffs, are in the wrong position, but the notes are
good, I'm just too lazy to fix it right now.  I think it is played lower on the neck...

    *  *  *  *
  E---------------------------------------------------|
  B---------------------------------------------------|
  G-------------------------------------11-13----11-13|
  D-11-11-11-11-13-11----11-13-11-14-13-------14------|
  A-------------------13------------------------------|
  E---------------------------------------------------|
  |                                                   |
  | *  *  *  *                                        |
  E---------------------------------------------------|
  B---------------------------------------------------|
  G---------------------------------------------------|
  D-------------------------------11----13-14-11-13-14|
  A-13-13-13-13-14-13-11-13-14-13----14---------------|
  E---------------------------------------------------|

  E----------------------------------------------|
  B-12-12-12-12-------12-12----------------------|
  G-------------13-13-------13-13-------11-11----|
  D-------------------------------14-14-------11-|
  A----------------------------------------------|
  E----------------------------------------------|
  |                                              |
  E----------------------------------------------|
  B----------------------------------------------|
  G----------------------------------------------|
  D-14-14-14-14-11-11-14-14-11-11----------------|
  A-------------------------------11-11-13-13----|
  E-------------------------------------------12-|

    *  *  *  *
  E---------------------------------------------------|
  B---------------------------------------------------|
  G-------------------------------------11-13----11-13|
  D-11-11-11-11-13-11----11-13-11-14-13-------14------|
  A-------------------13------------------------------|
  E---------------------------------------------------|
  |                                                   |
  | *  *  *  *                                        |
  E---------------------------------------------------|
  B---------------------------------------------------|
  G---------------------------------------------------|
  D-------------------------------11----13-14-11-13-14|
  A-13-13-13-13-14-13-11-13-14-13----14---------------|
  E---------------------------------------------------|

  E----------------7/----------------------|
  B---------7-8--9-------------------------|
  G-7-8--9-----------------9b11b9----------|
  D----------------------------------------|
  A----------------------------------------|
  E----------------------------------------|
  |                                        |
  E----------------------------------------|
  B-----------------9/---------------------|
  G---------9-10-11-------11b13b11---------|
  D-9-10-11--------------------------------|
  A----------------------------------------|
  E----------------------------------------|

Repeat all that, then don't forget to throw this one in too...

  E-------------------------9--------------|--------------------------------|
  B-------------------9--10----10----------|--------------------------------|
  G-9--10-9-----9--10----------------------|--------------------------------|
  D----------11----------------------------|-13/14\13---14/15---------------|
  A----------------------------------------|-13/14\13---14/15---------------|
  E----------------------------------------|--------------------------------|
  |                                        |
  E-------------------------16-------------|
  B-------------------16-17----17----------|
  G-16-17-16----16-17----------------------|
  D----------18----------------------------|
  A----------------------------------------|
  E----------------------------------------|


  E-------------------------9--------------|-14-------16-------17-------19---|
  B-------------------9--10----10----------|-17b19----19b21----20b22----22b24|
  G-9--10-9-----9--10----------------------|---------------------------------|
  D----------11----------------------------|---------------------------------|
  A----------------------------------------|---------------------------------|
  E----------------------------------------|---------------------------------|
  |                                        |
  E-------------------------16-------------|
  B-------------------16-17----17----------|
  G-16-17-16----16-17----------------------|
  D----------18----------------------------|
  A----------------------------------------|
  E----------------------------------------|

Now repeat this twice, 4/4 time...
                                                            Csus2
  E--------------------------------|------------------------3-------|
  B--------------------------------|------------------------3-------|
  G--------------------------------|------------------------5-------|
  D-----------/5-------------------|-----------/5-----------5-------|
  A---------3--------------3-------|---------3--------------3-------|
  E-0-1--3---------0-1--3-----3----|-0-1--3---------0-1--3----------|

Here it stays 4/4 time, but this riff is written in 9/4 time,
so you get that cool revolving effect.  It's a good time to jam out hard here...

Riff

  E--------------------------------|
  B--------------------------------|
  G-----9-7-6-7-----6--7-----------|
  D-----9-7-6-7-----6--7--7--9-----|
  A-----------------------7--9-----|
  E--------------------------------|

Same riff when played during the transition to the lyrics

  E--------------------------------|
  B--------------------------------|
  G-----9--7--------6--7-----------|
  D-----9--7--------6--7--7--9-----|
  A-----------------------7--9-----|
  E--------------------------------|

Now play G7 during these lyrics...

  If you think that you resemble your roots
  You've got to pickup all your pieces and hope they approve
  Your words won't carry that much weight on the shelves
  Who you gonna blame for representing yourself?

And back to the previous riff for a while, with more jamming,
then G7 with the same lyrics again, then this... (continue the previous riff too)

  E----------------------------------------------------|
  B----------------------------------------------------|
  G-----16-16------------------------------------------|
  D-----14-14-------16-16------------------------------|
  A-----------------14-14-------16-16-------9--9-------|
  E-----------------------------14-14-------7--7-------|

Repeat that a few times then shift to this...

  E--------------------------------|
  B--------------------------------|
  G-----8-8------------------------|
  D-----6-6-----8-8----------------|
  A-------------6-6-----8-8-----3-3|
  E---------------------6-6-----1-1|

Next is this riff twice...
                                  ? ? ?       ? ? ?           ? ? ?
  E-----------------------------------------------------------------|
  B-----------------------------------------------------------------|
  G-----------------------0-4-5-4-------4-5-4-------4-5-7-5-4-------|
  D-------------2-3-2---2---------5-0-5-------5-0-5-----------------|
  A-2-3-2---2-3-------3---------------------------------------------|
  E-------3---------------------------------------------------------|
          pm. .       pm. .       pm. .       pm. .

Then this 4 times...

  E--------------------------------|
  B--------------------------------|
  G-----8-8------------------------|
  D-----6-6-----8-8----------------|
  A-------------6-6-----8-8-----3-3|
  E---------------------6-6-----1-1|

Then this again...
                                  ? ? ?       ? ? ?           ? ? ?
  E-----------------------------------------------------------------|
  B-----------------------------------------------------------------|
  G-----------------------0-4-5-4-------4-5-4-------4-5-7-5-4-------|
  D-------------2-3-2---2---------5-0-5-------5-0-5-----------------|
  A-2-3-2---2-3-------3---------------------------------------------|
  E-------3---------------------------------------------------------|
          pm. .       pm. .       pm. .       pm. .

Shift this riff down another 1/2 step...

  E--------------------------------|
  B--------------------------------|
  G-----7-7------------------------|
  D-----5-5-----7-7----------------|
  A-------------5-5-----7-7-----2-2|
  E---------------------5-5-----0-0|


Then this transition riff, using palm muted pedal tones on the low 3 strings.  Use pull offs
when going from a fretted note to an open one if you want to.  Play each bar twice...

    E
  E--------------------------------|
  B--------------------------------|
  G--------------------------------|
  D--------------------------------|
  A-2-2-----5-0-----7-5-0---5-0----|
  E-0-0-0-0-----0-0-------0-----0-0|
        pm.     . .       .     . .

    A
  E--------------------------------|
  B--------------------------------|
  G--------------------------------|
  D-2-2----------------------------|
  A-0-0-0-0-4-0-0-0-5-4-0-0-4-0-0-0|
  E--------------------------------|
        pm.     . .       .     . .

    G
  E--------------------------------|
  B--------------------------------|
  G--------------------------------|
  D--------------------------------|
  A-5-5-0-0-3-0-0-0-5-3-0-0-3-0-0-0|
  E-3-3----------------------------|
        pm.     . .       .     . .

    F
  E--------------------------------|
  B--------------------------------|
  G--------------------------------|
  D-----------------0--------------|
  A-3-3-0-0-1-0-0-0---1-0-0-1-0-0-0|
  E-1-1----------------------------|
        pm.     . .       .     . .

    Bb
  E--------------------------------|
  B--------------------------------|
  G-----------------0--------------|
  D-3-3-0-0-1-0-0-0---1-0-0-1-0-0-0|
  A-1-1----------------------------|
  E--------------------------------|
        pm.     . .       .     . .

    C
  E--------------------------------|
  B--------------------------------|
  G--------------------------------|
  D-5-5-0-0-3-0-0-0-5-3-0-0-3-0-0-0|
  A-3-3----------------------------|
  E--------------------------------|
        pm.     . .       .     . .

    D
  E--------------------------------|
  B--------------------------------|
  G--------------------------------|
  D-7-7-0-0-4-0-0-0-5-4-0-0-4-0-0-0|
  A-5-5----------------------------|
  E--------------------------------|
        pm.     . .       .     . .

And finish off the D with some sweet lick, here's one from 2/15/03

  E----------------------------------|--------------------------------|
  B-------------------7-8-10-8-7-8-10|-10-b-12------------------------|
  G-----7---9-7---7-9----------------|--------------------------------|
  D-7-9---9-----9--------------------|--------------------------------|
  A----------------------------------|--------------------------------|
  E----------------------------------|--------------------------------|

This is the last part.  First the piano does this...

  E-13----13----13----13----13----13----12----10---|
  B-15----15----15----15----15----15----13----12---|
  G----13----13----13----13----13----13----13----13|
  D------------------------------------------------|
  A------------------------------------------------|
  E------------------------------------------------|

  E-12----12----12----12----13----13----13----13---|
  B-13----13----13----13----15----15----15----15---|
  G----12----12----12----12----12----12----12----12|
  D------------------------------------------------|
  A------------------------------------------------|
  E------------------------------------------------|

  E-12----12----12----12----12----12----10----8----|
  B-13----13----13----13----13----13----12----10---|
  G----11----11----11----11----11----11----11----11|
  D------------------------------------------------|
  A------------------------------------------------|
  E------------------------------------------------|

  E-10----10----10----10----10----10----10----10---|
  B-12----12----12----12----12----12----12----12---|
  G----10----10----10----10----10----10----10----10|
  D------------------------------------------------|
  A------------------------------------------------|
  E------------------------------------------------|

  E-8-----8-----8-----8-----8-----8-----7-----5----|
  B-8-----8-----8-----8-----8-----8-----8-----7----|
  G----9-----9-----9-----9-----9-----9-----9-----9-|
  D------------------------------------------------|
  A------------------------------------------------|
  E------------------------------------------------|

  E-7-----7-----7-----7-----8-----8-----8-----8----|
  B-8-----8-----8-----8-----10----10----10----10---|
  G----8-----8-----8-----8-----8-----8-----8-----8-|
  D------------------------------------------------|
  A------------------------------------------------|
  E------------------------------------------------|

And finish with a big D chord which the guitars join in on...

  E-12----12----12----12----12----12----12----12---|
  B-10----10----10----10----10----10----10----10---|
  G------------------------------------------------|
  D----12----12----12----12----12----12----12----12|
  A------------------------------------------------|
  E------------------------------------------------|


Then the guitar repeats this pattern over the piano...

  E--------------------------------------------|
  B--------------------------------------------|
  G-13---13-13-13---13-13-13---13-13-13---13-13|
  D-13---13-13-13---13-13-13---13-13-13---13-13|
  A-11---11-11-11---11-11-11---11-11-11---11-11|
  E--------------------------------------------|

for each of these chords...

    G#   C/G  D/F#  Dm/F  C/E  Cm/D#
  E--------------------------------|
  B--------------------------------|
  G-13---9----7-----7-----5----5---|
  D-13---10---7-----7-----5----5---|
  A-11---10---9-----8-----7----6---|
  E--------------------------------|

And finish with a D

    D
  E----|
  B-7--|
  G-7--|
  D-7--|
  A-5--|
  E----|
            
Submit corrections

comments powered by Disqus
↑ Back to top | Umphreys Mcgee Tabs for Jajunk. Lyrics for acoustic guitar and electric guitar. Tablatures and chords are parodies/interpretations of the original songs. You may use it for private study, scholarship, research or language learning purposes only