» » »

Umphreys Mcgee, Hunt Bird Bath Tabs (ver.1)

Artists:  A B C D E F G H I J K L M N O P Q R S T U V W X Y Z # 

Hunt Bird Bath Tabs (ver.1)

Umphreys Mcgee Tabs
 Rating:
4/5 (4 votes)
Hunt Bird Bath lessons Tabs too difficult? Try these video lessons and learn fast
1
                E------------------------------------------|
B------------------------------------------|
G------------------------------------------|
D--2h4p2---2h4p2---2h4-----4p2-------------|
A--------4-------4-------------4p2---------|
E----------------------------------5--2----|

E----------------------------------------------------------|
B----------------------------------------------------------|
G----------------------------------------------------------|
D-2h4p2---2h4p2---2h4---2h4p2---2h4p2---2h4---2h4p2---2h4--|
A-------4-------4-------------4-------4-------------4------|
E----------------------------------------------------------|

not exact

E-------------------------------------|
B----------------------5--------------|
G--4b1/2r4p2-------4/6---6\4p2---2----|
D-------------4--2-------------4------|
A-------------------------------------|
E-------------------------------------|

???something like this???

E-----------------------------------|
B-----------------------------------|
G--4b1/2r4p2---2--------------------|
D------------4----4--2--------------|
A-----------------------4-3-2-------|
E-----------------------------5--2--|

Riff sequence:

Gm7     Am7      Gm7          Gm7   Am7   Gm7    Repeat this a couple                    
                                                                                        
                                                                         times...

E--8-6-5-6--5-3-5--3---3--------------------------------|
B--------------------6------6-5-6--5-3-5--3---3--5-3-5--|
G-------------------------------------------5-----------|
D-------------------------------------------------------|
A-------------------------------------------------------|
E-------------------------------------------------------|

E--------------------------------------------------0-----4-5-7-----4h5p4-----|
B----------5h6--5----------------------------3p2---------------5---------5-5-|
G-------7------------7-7--3h5--3--3h5p3\2--------4---4-----------------------|
D----7-----------------------------------------------------------------------|
A--5-------------------------------------------------------------------------|
E----------------------------------------------------------------------------|

E-------------------------0------------------------3-|
B-5h7--5------------------5----------------2-----0---|
G---------7/9--6\4\2/4--6---4\2\1/2/4----4-----5-----|
D--------------------------------------2-----3-------|
A----------------------------------------------------|
E----------------------------------------------------|


Repeat
-------------------------------------------------------------------------------------

Update by Eric Sievers

After the first couple parts shown above, play these chords...

  Bb C Gm7     Bb C Gm7     Bb C Gm7

Then it does something weird in Am7 for a few measures, then to the lyrics..


  Go if you want to walk where you will
  The hallways will always be there

  You're barely content if your belly is full
  Shifting and drifting to sleep where you can

  You're slowly arriving but never on time
  You strain to explain all the strange cares

  A struggle to stand afraid if you try
  Pleading and bleeding you change what you can


Play this 3 times...

     Dm            Bb                    A          E           C#m         D
  E--------0h1-0------------------------------------0-----4-5-7-----4h5-4-----|
  B------3-------3-3-------3h5--3--3h5p3\2--2h3-2-----0---------5---------5-5-|
  G----2-----------3-------3h5--3--3h5p3\2--------4---------------------------|
  D--0------------------------------------------------------------------------|
  A---------------------------------------------------------------------------|
  E---------------------------------------------------------------------------|

            A            E           Bm7   Gmaj7/C ??
  E------------------------------------------------|
  B-5h7-5\3-5-\2-------2-5---------0-------------3-|
  G--------------4-2-4-----4-2\1-2-------2-----0---|
  D------------------------------------4-----4-----|
  A----------------------------------2-----3-------|
  E------------------------------------------------|

The last time it ends like this, leading into the jam...

  E-------------------------------------------------------------------|
  B-------------3-----------1-----------3-----------1-----------3-----|
  G-----2-----0---0-------3---3-------0---0-------3---3-------0---0---|
  D---4-----4-------4---3-------3---4-------4---3-------3---4-------4-| etc...
  A-2-----3-----------------------------------------------------------|
  E-------------------------------------------------------------------|

The chords are something like this...

    Gmaj7 Gm7
  E----------|
  B-3-----3--|
  G-0-----3--|
  D-4-----3--|
  A----------|
  E-3-----3--|

The jam is based on various combinations of the arpeggio
above, the Gmaj7 amd Gm7, and these 2 riffs...

  E-----------------------------------------------------------------|
  B-----------------------------------------------------------------|
  G-----4p0---4p0---4p0---4p0---4p0-----3p0---3p0---3p0---3p0---3p0-|
  D-5-------5-----5-----5-----5-----5-------5-----5-----5-----5-----|
  A-----------------------------------------------------------------|
  E-----------------------------------------------------------------|

  E----------------------------------------------------------------|
  B----------------------------------------------------------------|
  G-----4p0---7p0---4p0---7p0---4-------3p0---7p0---3p0---7p0---3--|
  D-5-------5-----5-----5-----5-----5-------5-----5-----5-----5----|
  A----------------------------------------------------------------|
  E----------------------------------------------------------------|

After rockin out a while, do this...

  E-8-6-5-6---5---5------------------------8-6-5-6---5---5----------------------|
  B-------------8--------/10-8\6-8---------------------8--------/10-8\6-8-------|
  G--------------------------------7--------------------------------------------|
  D-----------------------------------------------------------------------------|
  A-----------------------------------------------------------------------------|
  E-----------------------------------------------------------------------------|
  |
  E--------------------------------------------------------------------------------|
  B-10-8----8--------------------------------10-8----8-----------------------------|
  G------10-----10-9-10------9-7----7-------------10-----10-9-10-------------------|
  D------------------------------10-----------------------------------10-8-10-b12--|
  A-----------------------------------8--------------------------------------------|
  E--------------------------------------------------------------------------------|


Then jam more, then the above line some more, then this...

  E-8-6-5-6---5---5-------------------------------------------------|
  B-------------8-----8-6-8---6-5-6---5---5-------------------------|
  G-------------------------------------7-----7-5-7---5-3-5---3-2-3-|
  D-----------------------------------------------------------------|
  A-----------------------------------------------------------------|
  E-----------------------------------------------------------------|

Play this 4 times... (Not sure about the first 2 chords, but it's close)

    D5     D#5    Gm7                      D5     D#5    F#m7
  E----------------------------------------------------------------|
  B----------------------3-----------------5------6-------------2--|
  G-7------8-------------3-----------------7------8-------------2--|
  D-7------8-------------3-----------------7------8-------------2--|
  A-5------6-------------------------------5------6----------------|
  E---------------3--------------------------------------2---------|

Then this 4 times...

  E--------------------------------------------------------------|
  B--------------------------------------------------------------|
  G--------------------------------------------------------------|
  D--3h5p3---3h5p3---3h5-----4p2-------------3h5p3---3h5p3---3h5-|
  A--------5-------5-------------4p2---------------5-------5-----|
  E----------------------------------5p2-------------------------|

Now this 8 times...

  E-------------------------------------------------------|
  B-------------------------------------------------------|
  G--2h3p2---2h3p2---2h3p2h3-----1h2p1---1h2p1---1h2p1h2--|
  D--3h5p3-3-3h5p3-3-3h5p3h5-----2h4p2-2-2h4p2-2-2h4p2h4--|
  A--------5-------5-------------------4-------4----------|
  E-------------------------------------------------------|

Then the same riff from much earlier in the song, then this...

  E-------------------------|
  B-------------------------|
  G-------------------------|
  D-------1-3-2-------1-3-2-|
  A-0-1-2-1-3-2-0-1-2-1-3-2-|
  E-0-1-2-------0-1-2-------|
            
Submit corrections

comments powered by Disqus
↑ Back to top | Umphreys Mcgee Tabs for Hunt Bird Bath. Lyrics for acoustic guitar and electric guitar. 1 Tablatures and chords are parodies/interpretations of the original songs. You may use it for private study, scholarship, research or language learning purposes only