>
 >
Glory

Glory Guitar Tabs

Umphreys Mcgee - Glory chords, tabs, tablatures, lyrics

Guitar lessons | Add/correct | Request | Top 50 tabs Artists:  A B C D E F G H I J K L M N O P Q R S T U V W X Y Z 0-9

Glory Guitar Tabs – Umphreys Mcgee

CD, Sheet music, Poster

Do you like Glory? Share with your friends now
Tabs
"Glory"
Umphrey's McGee
Live at St. Pat's Park, South Bend, IN 9/8/2006

Please forward any corrections/suggestions that you may have.


Umphrey's McGee - "Glory"


Jake Intro

    E
e||------<12>----------<7>-<5>-|
B||-----------<12>-<7>---------|
G||----------------------------|
D||----------------------------|
A||----------------------------|
E||-<12>-----------------------|


    E
e||-2h4p2p0-2-----------0-|-----------0-2-/4---|
B||-----------4/5-2-------|--------------------|
G||-----------------2/4---|-2\1---2/4----------|
D||-----------------------|-4\2---4/6----------|
A||-----------------------|-----2--------------|
E||-----------------------|------------------0-|

  G#
|------------4-7/9-7-|-5h7p5-4h5p4\2p0-2/4-|
|--------5-7---------|---------------------|
|------4-------------|---------------------|
|----6---------------|---------------------|
|--------------------|---------------------|
|-4------------------|---------------------|

  C#        B
|---------|------2--|------7-9-10-11-10-9-7-----|
|-------5-|-----2-2-|-----7---------------------|
|---------|----4----|----8---9-10-11-10-9-8---8-|
|-----6---|---4-----|-4/9-------------------9---|
|---4-----|-2-------|---------------------------|
|-4-------|---------|---------------------------|

  A
|---------5h7p5----------|----------------------|
|-----5-5--------7p5-----|----------------------|
|----6----6h7p6--7p6-7p6-|----------------------|
|-7-7----------------7---|----------------------|
|------------------------|----------------------|
|------------------------|-2b3r2----------------|


"Glory" 9/8/06

    E           G#m       A           C#m
e||---0h2p0---0-----0---|---0h2p0---0-----0---|
B||---------4-----0---0-|---------4-----0---0-|
G||---------------------|---------------------|
D||---------------------|---------------------|
A||---------------------|-0-----------4-------|
E||-0-----------4-------|---------------------|

 B             A
---0-0-0-0-2-|---/5-4-2-0---0-|
---0-2-4-0-0-|----0-0-0-0h2-0-|
-------------|----------------|
-------------|----------------|
-2-----------|-0--------------|
-------------|----------------|

Alternate ending Jake sometimes plays/improvises over the B and the A chord of the main theme

  B                       A
--------7-9-11--7-------|----5h7p5------------|
------7-----------7-----|---5-----5h7p5-------|
----8---------------8---|--6-----------6h7p6--|
-/9-------------------9-|-7-----------------7-|
------------------------|---------------------|
------------------------|---------------------|

After this ending, Jake plays harmonics on the 12th fret while Brendan hits the open E 
to start the theme again
()=Brendan

     E              G#m      A           C#m
e||-<12>-0h2p0---0-----0---|---0h2p0---0-----0---|
B||-<12>-------4-----0---0-|---------4-----0---0-|
G||------------------------|---------------------|
D||------------------------|---------------------|
A||------------------------|-0-----------4-------|
E||-(0)-------------4------|---------------------|

Chords: E G#m A C#m B A

Solo in C#m pentatonic/E Major


Tablature Legend
----------------
 h   - hammer-on
 p   - pull-off
 b   - bend
 pb  - pre-bend
 r   - bend release
 /\  - slide into or out of (from/to "nowhere")
  - natural harmonic





Comments


Popular Umphreys Mcgee tabs & chords
Bright Lights Chords
2nd Shelf Tabs
Andy's Last Beer Tabs
Atmosfarag Tabs
Dim Sun Tabs
End Of The Road Tabs
Jajunk Tabs
Pequod Tabs
Robot World Tabs
Walletsworth 1 Tabs


Song lyrics



↑ Back to top | Tablatures and chords are parodies/interpretations of the original songs. You may use it for private study, scholarship, research or language learning purposes only
© 2014 AZChords.com Contact us | Privacy policy | DMCA | Add/correct tabs | Request tabs | Top 50 tabs