>
 >
End Of The Road

End Of The Road Guitar Tabs

Umphreys Mcgee - End Of The Road chords, tabs, tablatures, lyrics

Guitar lessons | Add/correct | Request | Top 50 tabs Artists:  A B C D E F G H I J K L M N O P Q R S T U V W X Y Z 0-9

End Of The Road Guitar Tabs – Umphreys Mcgee

CD, Sheet music, Poster

Do you like End Of The Road? Share with your friends now
Tabs
Dropped D tuning (DADGBE)
Fingerpicked

  |-----0-----0---------0-----0-----|----0-----0-------0-------0-----|
  |-----5-------5-------5-------5---|----5-------5-------5-------5---|
  |-----6---------6-----6---------6-|----6---------6-------6-------6-|
  |-7-------7-------7-------7-------|7-------7-------7-------7-------|
  |---------------------------------|--------------------------------|
  |---------------------------------|--------------------------------|

  |-----0-----0---------0-----0-----|--------7-0---------9-----------|
  |-----5-------5-------5-------5---|------------5-----------5-------|
  |-----6---------6-----6---------6-|--------------6-----------6-----|
  |-7-------7-------7-------7-------|7---------------7-----------7---|
  |---------------------------------|--------------------------------|
  |---------------------------------|--------------------------------|

Note the repeat symbols and 4 different endings

   A                                  C#m/G#  F#m7    E
  |------0-----0---------0-----0-----|--0-------0-------0-------0-------|
  |------5-------5-------5-------5---|----5-------5-------5-------5-----|
  |*-----6---------6-----6-----------|----------------------------------|
  |*---------7-------7-------7-------|7-----7-6-------4-----4-2-----4p2-|
  |--0-------------------------------|----------------------------------|
  |----------------------------------|----------------------------------|

    F#m7                             F#m     F#madd9 F#m     E
  |-----0-----0---------0-----0-----|--5-------4-------2-------0-----|
  |---------------------------------|----2-------2-------2-------0---|
  |-----2-------2-------2-------2---|------2-------2-------2-------1-|
  |---------------------------------|--------------------------------|
  |---------------------------------|--------------------------------|
  |-4-------4-------4-------4-------|4-------4-------4-------2-------|

    D
  |-----2-----2---------2-----2-----|----2-----2---------0-----------|
  |-----3-------3-------3-------3---|----3-------3-------5-----3-----|
  |---------------2---------------2-|--------------2-----------------|
  |-----------------0---------------|----------------0-------0-------|
  |---------0---------------0-------|--------0-----------------------|
  |-0-------------------------------|0-------------------------------|

    A                                F       G       A       F
  |-0-------------------------------|--------------------------------|
  |-------2-------------2-----------|--------------------------------|
  |-------------2-------------------|--------------------------------|
  |---------2---------------2-------|----3-------5-------7-------3---|
  |-0---------------0---------------|--3-------5-------7-------3-----|
  |-------------------------------0h|3-----3/5-----5/7-----0h3-----0h|

   __________________________________________________________________
  |1., 2.

    E             *slow-mo strum  *                *
  |-------0-------0-------0-------0-|------0-------0---------0--------|
  |-----4-----4---4-----4-----4---4-|----4-----4---4------------------|
  |---4-----------4---4-----------4-|--4-----------4-----------------*|
  |---------------------------------|--------------------------------*|
  |---------------------------------|---------------------------------|
  |-2-------2-------2-------2-------|2-------2-------2----------------|

   __________________________________________________________________
  |3.

    E             *               *                *               *
  |-------0-------0-------0-------0-|------0-------0-------0-------0-|
  |-----4-----4---4-----4-----4---4-|----4-----4---4-----4-----4---4-|
  |---4-----------4---4-----------4-|--4-----------4---4-----------4-|
  |---------------------------------|--------------------------------|
  |---------------------------------|--------------------------------|
  |-2-------2-------2-------2-------|2-------2-------2-------2-------|

    D             *               *                *          
  |-------0-------0-------0-------0-|------0-------0-------0---------|
  |-----5-----4---5-----5-----4---5-|----2-----2---2-----2-----2-----|
  |---4-----------4---4-----------4-|--4-----------4---4-------------|
  |---------------------------------|--------------------------------|
  |---------------------------------|--------------------------------|
  |-0-------0-------0-------0-------|0-------0-------0-------0-------|

  |---------------------------------|--------------------0-------0---|
  |---------------------------------|------------------0---0---------|
  |-----6-----6-----6-----6-----6---|----8-----8-----8-------8-------|
  |---7-----7-----7-----7-----7-----|--9-----9-----9-----------9-----|
  |---------------------------------|--------------------------------|
  |-7-----7-----7-----7-----7-----7/|9-----9-----9-----------------9/|

  |-------------------------------------------|----0-------0-------0-------0----|
  |-------------------------------------------|--5---5---5---5---0---0---0---0--|
  |-------9-------9-------9-------9-------9---|6-------4-------2-------1-------*|
  |----11------11------11------11------11-----|--------------------------------*|
  |-------------------------------------------|---------------------------------|
  |-11------11------11------11------11--------|---------------------------------|

   __________________________________________________________________
  |4.

    E             *
  |-------0-------0-------0-------0-|------0-------0---------0-------|
  |-----4-----4---4-----4-----4---4-|----4-----4---4-----------------|
  |---4-----------4---4-----------4-|--4-----------4-----------------|
  |---------------------------------|--------------------------------|
  |---------------------------------|--------------------------------|
  |-2-------2-------2-------2-------|2-------2-------2---------------|

    D             *
  |-------0-------0-------0-------0-|------0-------0-------0---------|
  |-----5-----4---5-----5-----4---5-|----2-----2---2-----2-----2-----|
  |---4-----------4---4-----------4-|--4-----------4---4-------------|
  |---------------------------------|--------------------------------|
  |---------------------------------|--------------------------------|
  |-0-------0-------0-------0-------|0-------0-------0-------0-------|

  |---------------------------------|--------------------0-------0---|
  |---------------------------------|------------------0---0---------|
  |-----6-----6-----6-----6-----6---|----8-----8-----8-------8-------|
  |---7-----7-----7-----7-----7-----|--9-----9-----9-----------9-----|
  |---------------------------------|--------------------------------|
  |-7-----7-----7-----7-----7-----7/|9-----9-----9-----------------9/|

  |-------------------------------------------|----0-------0-------0-------0---|
  |-------------------------------------------|--5---5---5---5---0---0---0---0-|
  |-------9-------9-------9-------9-------9---|6-------4-------2-------1-------|
  |----11------11------11------11------11-----|--------------------------------|
  |-------------------------------------------|--------------------------------|
  |-11------11------11------11------11--------|--------------------------------|

  |---------------------------------|--------------------0-------0---|
  |---------------------------------|------------------0---0---------|
  |-----6-----6-----6-----6-----6---|----8-----8-----8-------8-------|
  |---7-----7-----7-----7-----7-----|--9-----9-----9-----------9-----|
  |---------------------------------|--------------------------------|
  |-7-----7-----7-----7-----7-----7/|9-----9-----9-----------------9/|

  |-------------------------------------------|----0-------0-------0-------0---|
  |-------------------------------------------|--5---5---5---5---0---0---0---0-|
  |-------9-------9-------9-------9-------9---|6-------4-------2-------1-------|
  |----11------11------11------11------11-----|--------------------------------|
  |-------------------------------------------|--------------------------------|
  |-11------11------11------11------11--------|--------------------------------|

Finish with the intro riff again a few times


1





Comments


Popular Umphreys Mcgee tabs & chords
Anchor Drops Bass Tabs
Anchor Drops Tabs
Dim Sun Tabs
Divisions Tabs
Hunt Bird Bath Tabs
Mulches Odyssey Tabs
Ringo Tabs
Robot World Tabs
The Floor Tabs
Uncle Wally Tabs


Song lyrics



↑ Back to top | Tablatures and chords are parodies/interpretations of the original songs. You may use it for private study, scholarship, research or language learning purposes only
© 2014 AZChords.com Contact us | Privacy policy | DMCA | Add/correct tabs | Request tabs | Top 50 tabs