» » »

Umphreys Mcgee, Divisions Tabs (ver.1)

Artists:  A B C D E F G H I J K L M N O P Q R S T U V W X Y Z # 

Divisions Tabs (ver.1)

Umphreys Mcgee Tabs
 Rating:
4/5 (4 votes)
Divisions lessons Tabs too difficult? Try these video lessons and learn fast
                  E|---------------------------------|
  B|-X-------X-------X-------X-------|
  G|-X-------X-------X-------X-------|
  D|-X-------X-------X-------X-------|
  A|-X-------X-------X-------X-------|
  E|---------------------------------|

Play this twice...
                                              various strumming...
     E (4 beats)                              D (3.5 beats)
  E|----------------------------------------|---------------------------------|
  B|-9--------------------------------------|-7-------------------------------|
  G|-9--------------------------------------|-7-------------------------------|
  D|-9-------------------------11p9----9\7--|-7-------------------------------|
  A|-7-----------------9-11-12------11------|-9-------------------------------|
  E|---------5/--11-12----------------------|---------------------------------|

                                    various strumming...
     E (3 beats)                    D (4 beats)
  E|-------------------------------|---------------------------------|
  B|-9----------------10p9----9----|-7-------------------------------|
  G|-9-----------9-11------11---9\-|-7-------------------------------|
  D|-9-----------------------------|-7-------------------------------|
  A|-7-----------------------------|-9-------------------------------|
  E|-------------------------------|---------------------------------|
   |                               |
  E|-------------------------------|
  B|-9-----------------------------|
  G|-9-----------------------------|
  D|-9----------------11p9----9\7--|
  A|-7-----------9-11------11------|
  E|-------------------------------|

Now sing the verses while playing this 4 times, similar to the first 2 bars above,
but in straight 4/4 time...

     E                                        D
  E|----------------------------------------|---------------------------------|
  B|-9--------------------------------------|-7-------------------------------|
  G|-9--------------------------------------|-7-------------------------------|
  D|-9-------------------------11p9----9\7--|-7-------------------------------|
  A|-7-----------------9-11-12------11------|-9-------------------------------|
  E|-------------11-12----------------------|---------------------------------|

Then drop the riff and strum E > D 4 times while singing "souuuuulll"...

Repeat for the next verse, then there's a breakdown in E, morph to 6/8 time,
build it up by just banging on E in rhythm, and finally burst out into this twice...


  E|-----------------------------------------------9--10-10-10-9----|
  B|---------9--------------10-9---------9-12-10-9---------------12-|
  G|-------9---11-9----9-11------11-9-11----------------------------|
  D|-11-12----------12----------------------------------------------|
  A|----------------------------------------------------------------|
  E|----------------------------------------------------------------|
                                                                    |
                                                  -12-14-14-14-12---|
                                                  ---------------15-|
                                                  ------------------|
                                                  ------------------|
                                                  ------------------|
                                                  ------------------|

  E|-----------------------------------------------10-9----12~------|
  B|---------9--------------10-9---------9-12-10-9------12----------|
  G|-------9---11-9----9-11------11-9-11----------------------------|
  D|-11-12----------12----------------------------------------------|
  A|----------------------------------------------------------------|
  E|----------------------------------------------------------------|
                                                                    |
                                                  -14-------16~-----|
                                                  ----17-15---------|
                                                  ------------------|
                                                  ------------------|
                                                  ------------------|
                                                  ------------------|

Then jam out on this riff...

  E|-------------------------------------------------|
  B|-------------------------------------------------|
  G|-------------9---9---9---------------6-7-7-7-6---|
  D|-----------9-----------9-----------9-----------9-|
  A|-7---7---7---------------7---7---7---------------|
  E|-------------------------------------------------|

After jamming a while, wind it down with this...

  E|--------------------------------------------------------|
  B|--------------------------10-9----9---------------------|
  G|--------------9---9---9--------11---11-9-11-9----9------|
  D|------------9-----------9---------------------11---11-9-|
  A|--------------------------------------------------------|
  E|-12--12--12---------------------------------------------|

  E|--------------------------------------------------------|
  B|--------------------------10-9----9------12b14---12~----|
  G|--------------9---9---9--------11---11-9----------------|
  D|------------9-----------9-------------------------------|
  A|--------------------------------------------------------|
  E|-12--12--12---------------------------------------------|

  E|--------------------------------------------------------|
  B|--------------------------10-9----9---------------------|
  G|--------------9---9---9--------11---11-9-11-9----9------|
  D|------------9-----------9---------------------11---11-9-|
  A|--------------------------------------------------------|
  E|-12--12--12---------------------------------------------|

  E|--------------------------------------------------------|
  B|--------------------------10-9--------------------------|
  G|--------------9---9---9--------9------------------------|
  D|------------9-----------9--------9----------------------|
  A|-----------------------------------12-11----------------|
  E|-12--12--12------------------------------12\------------|

Into a drum section, eventually do the build up on E again into this...

  E|-----------------------------------------------9--10-10-10-9----|
  B|---------9--------------10-9---------9-12-10-9---------------12-|
  G|-------9---11-9----9-11------11-9-11----------------------------|
  D|-11-12----------12----------------------------------------------|
  A|----------------------------------------------------------------|
  E|----------------------------------------------------------------|
                                                                    |
                                                  -12-14-14-14-12---|
                                                  ---------------15-|
                                                  ------------------|
                                                  ------------------|
                                                  ------------------|
                                                  ------------------|

  E|-----------------------------------------------10-9----12~------|
  B|---------9--------------10-9---------9-12-10-9------12----------|
  G|-------9---11-9----9-11------11-9-11----------------------------|
  D|-11-12----------12----------------------------------------------|
  A|----------------------------------------------------------------|
  E|----------------------------------------------------------------|
                                                                    |
                                                  -14-------16~-----|
                                                  ----17-15---------|
                                                  ------------------|
                                                  ------------------|
                                                  ------------------|
                                                  ------------------|

  E|-----------------------------------------------9--10-10-10-9----|
  B|---------9--------------10-9---------9-12-10-9---------------12-|
  G|-------9---11-9----9-11------11-9-11----------------------------|
  D|-11-12----------12----------------------------------------------|
  A|----------------------------------------------------------------|
  E|----------------------------------------------------------------|
                                                                    |
                                                  -12-14-14-14-12---|
                                                  ---------------15-|
                                                  ------------------|
                                                  ------------------|
                                                  ------------------|
                                                  ------------------|

  E|--------------------------------------------------|
  B|---------9--------------10-9----10-9--------------|
  G|-------9---11-9----9-11------11------9------------|
  D|-11-12----------12---------------------9----------|
  A|-----------------------------------------12-11----|
  E|-----------------------------------------------12\|

Now back to the verse (and 4/4), same as the first, but then instead of
just strumming E > D 4 times, add this to the end of each D...

  E|-------------------|
  B|-------------------|
  G|---------7---8---9-|
  D|-9-7-----7---8---9-|
  A|-------9-5---6---7-|
  E|-------------------|

Then continue E > D, with the above riff at the end of the D,
and add this at the end of the E.  Do that 4 times...

  E|--------------------|
  B|--------------------|
  G|--------------------|
  D|-7-6-----9---11--12-|
  A|-------7-9---11--12-|
  E|---------7---9---10-|

Then mellow on an E.  Next part is this, play it about 4 times...

  E|---------------------------------|
  B|---------------------------------|
  G|-----9-----8-----11----9---------|
  D|-----9-----9-----9-----9---------|
  A|---------------------------------|
  E|-0-------------------------------|

Eventually do this twice (jam it out if you like, this is just the basic melody)...

  E|------------------------------------------------------------------|
  B|-9h10-----9--------------------------9h10-----9-----12b14b12~-----|
  G|--------------11-9~-----------------------------------------------|
  D|------------------------------------------------------------------|
  A|------------------------------------------------------------------|
  E|------------------------------------------------------------------|

  E|---------12---14-12~------------------19-----17---16--------------|
  B|-12-14-------------------------------x---------------17~----------|
  G|------------------------------------x-----------------------------|
  D|-----------------------------------x------------------------------|
  A|------------------------------------------------------------------|
  E|------------------------------------------------------------------|

Then D > E 4 times, now repeat the last 3 parts since mellowing on E,
next drop into an Asus2 > E pattern, which continues and gets louder thru the
upcoming lyrics, when done do the intro part again, then end with this...

  E|----------------------------------------------------------------0----|
  B|----------------------------------------------------------------0----|
  G|----------------------------------------------------------------1----|
  D|------------9-11-9----9\7---7\6---6\4---4/6---6/7---7\6---------2----|
  A|----9-11-12--------11-----9-----7-----6-----7-----9-----7-------2----|
  E|-12-------------------------------------------------------7\5-4-0----|

--------------------------------------------------------------------------------------

Submitted by Jim Kasselis

e|-----------------------------|
b|-----------------------------|
g|----------------6p4-----4----|
d|------4h6h7---------6-----6--|
a|--5h7------------------------|
e|-----------------------------|

The entire first part of the song, verse and chorus, goes:

D->E

With the above lick (or similar to) in between lines.

Lyrics: (From Umphreaks!)
It was all Illusion, fragment of the whole
product in confusion, mastering my soul.
Moments of division, lost about the way
I can't feel my vision, swollow and remain.

Moments of division, lord but I can't see
contemplate my motion, who am I to be.

All my thoughts divided
All my friends divided
All my worlds divided, it's gone so far
All these ways divided
All these thoughts divided
When all our roads are spoken for.

then it fades, far gone
it's my sin
soul embrace
soul the same
soul embraced
soul the same
            
Submit corrections

comments powered by Disqus
↑ Back to top | Umphreys Mcgee Tabs for Divisions. Lyrics for acoustic guitar and electric guitar. Tablatures and chords are parodies/interpretations of the original songs. You may use it for private study, scholarship, research or language learning purposes only