» » »

Bridgeless Tabs (ver.1)

Artists:  A B C D E F G H I J K L M N O P Q R S T U V W X Y Z # 

Bridgeless Tabs (ver.1)

Umphreys Mcgee
Rating:
0/5 (0 votes)

Hard to play? Try these video lessons and learn fast.
                Repeat this a few times...

	E------------------------------------------|
	B------------------------------------------|
	G-2-------5-4-2--------2-------5-4-2-------|
	D---5-4-2-------5-4-2----5-4-2-------5-4-2-|
	A------------------------------------------|
	E------------------------------------------|

Then go to this...

	E-----------------------------------------|
	B-----------------------------------------|
	G-------------0---------------0-----------|
	D-0-2-0-2-0-2---4-2-0-----0-2---4-2-0-----|
	A---------------------4-2-------------4-2-|
	E-----------------------------------------|

	E---------------------------------------------|
	B---------------------------------------------|
	G---------0-----------------------0-----------|
	D-0-2-0-2---4-2-0-----0-2-0-2-0-2---4-2-0-----|
	A-----------------4-2---------------------4-2-|
	E---------------------------------------------|

Then back to the beginning again with this harmony...

	E-----------------------------------------------------|
	B-----------------------------------------------------|
	G-9---------12-11-9---------9---------12-11-9---------|
	D---12-11-9---------12-11-9---12-11-9---------12-11-9-|
	A-----------------------------------------------------|
	E-----------------------------------------------------|

	E-----------------------------------------------------|
	B-----------------------------------------------------|
	G-----------------------------------------------------|
	D----9----9----9-12-11-9------------9-12-11-9---------|
	A-12---12---12-----------12-11-9-12-----------12-11-9-|
	E-----------------------------------------------------|

	E----------------------------------------------------------|
	B----------------------------------------------------------|
	G----------------------------------------------------------|
	D----9----9-12-11-9------------9----9----9-12-11-9---------|
	A-12---12-----------12-11-9-12---12---12-----------12-11-9-|
	E----------------------------------------------------------|

Play this 3 times

	E-------------454-2-------------------010---------|
	B-------------------454-2-0---------0-----3-1-0---|
	G-------2--4----------------------0---------------|
	D-----4-------------------------2-----------------|
	A---4---------------------0-2-3-------------------|
	E-2---------------------------------------------0-|

	E-------------------------------------------------|
	B-------------------------3-----------------------|
	G-------------2-0-4-0-5-0-----5---4---242-0-2-----|
	D---------0---------------------------------------|
	A-----2-------------------------------------------|
	E-3---------------------------------------------0-|

	E-------------------------7-5-4-------------------|
	B-------------------------------7-5---------------|
	G-------------232-0-2-0-------------7-6-4---------|
	D---------3-------------------------------7-6-4---|
	A---0-3-----------------------------------------7-|
	E-1-----------------------0-----------------------|

2nd and 3rd time with harmony, third time turn up the distortion...

	E-------------797---------------------------------|
	B----------------10-797---------------------------|
	G-----------------------9-------------020---------|
	D-----------------------------------------3-2-0---|
	A-------------------------------------------------|
	E-------------------------------------------------|
	|
	E-------------454---------------------010---------|
	B-----------5-----7-454-2-----------0-----3-1-0---|
	G-------4-6-----------------------0---------------|
	D-4-6-7-------------------------2-----------------|
	A-------------------------0-2-3-------------------|
	E-----------------------------------------------0-|

	E-------------------------3-----------------------|
	B-------------1---3---5-------5---3---131-0-1-0---|
	G-------------------------------------------------|
	D-------------------------------------------------|
	A-------------------------------------------------|
	E-------------------------------------------------|
	|             *   *   *   *   *   *pinch harmonics 3rd time thru
	E-------------------------------------------------|
	B-------------------------3-----------------------|
	G-------------2-0-4-0-5-0-----5---4---242-0-2-0---|
	D---------0---------------------------------------|
	A-----2-------------------------------------------|
	E-3---------------------------------------------0-|

	E-------------------------------------------------|
	B-------------131-0-1-0---------------------------|
	G-------------------------------------------------|
	D-------------------------------------------------|
	A-------------------------------------------------|
	E-------------------------0-----------------------|
	|
	E-------------------------7-5-4-------------------|
	B-------------------------------7-5---------------|
	G-------------232-0-2-0-------------7-6-4---------|
	D-----------------------------------------7-6-4---|
	A-----0---3-------------------------------------7-|
	E-1-----------------------------------------------|

Here's the verse riff...

	E-----10---10-------10---10-------10---10-------10---10--------9----9\7-|
	B-----12---12-------12---12-------12---12-------12---12-------10---10\8-|
	G-----------------------------------------------------------------------|
	D-2---------------------------------------------------------------------|
	A-2---------------------------------------------------------------------|
	E-0---------------------------------------------------------------------|

After 4 times add this...

	E-----------------------------------------------------------------------|
	B-----------------------------------------------------------------------|
	G-----X-X--9--------X-X--9--------X-X--9--------X-X--9--------X-X--9----|
	D-----X-X--9--------X-X--9--------X-X--9--------X-X--9--------X-X--9----|
	A-----X-X--7--------X-X--7--------X-X--7--------X-X--7--------X-X--7----|
	E-----------------------------------------------------------------------|

	E------------------------------------------------------------------------|
	B------------------------------------------------------------------------|
	G-----X-X--9--------X-X--9--------X-X--9--------X-X--9--------X-X--11/12-|
	D-----X-X--9--------X-X--9--------X-X--9--------X-X--9--------X-X--11/12-|
	A-----X-X--7--------X-X--7--------X-X--7--------X-X--7--------X-X--9-/10-|
	E------------------------------------------------------------------------|

	Em
	I'm cleaning out my display case
	Em
	Self reformed more than halfway
	G
	Excluding all the specifics
	Em
	Reacting is too scientific
	Em
	The more you breathe open minded air
	Em
	You'll be reminded of why your here
	G
	And all the time you were lucky
	Em
	Until you were born, now your stuck here

Now this twice...

	  Bsus2   Gsus2
	E-2-----3-------3-2---------------2-----------------------------------------------|
	B-2-------3-------2-------3-------2-------3---------------------------------------|
	G---------2---------------2---------------2---------------------------------------|
	D-------------------------------------------------4-4-4-4-4-4-4-4-4-4-4-4-4-4-4-4-|
	A-2---------------2---------------2---------------4-4-4-4-4-4-4-4-4-4-4-4-4-4-4-4-|
	E---------3---------------3---------------3-------2-2-2-2-2-2-2-2-2-2-2-2-2-2-2-2-|

Repeat this immigrant song sounding riff 4 times...

	E-----------------|
	B-----------------|
	G-----------------|
	D-----------4-----|
	A-----------------|
	E-2---2---2---2---|


Then mix in this new riff with the last one, play
this part twice...

	E----------------------------------------------------|
	B----------------------------------------------------|
	G----------------------------------------------------|
	D----------------------------------------------4-----|
	A-------5---------------5-4-4------------------------|
	E-3-2-3-----------3-2-3--------------2---2---2---2---|

	E----------------------------------------------------|
	B----------------------------------------------------|
	G----------------------------------------------------|
	D----------------------------------------------------|
	A-------5---------------5-4-4------------------------|
	E-3-2-3-----------3-2-3------------------------------|

Now modulate the same riff down a whole step, again
play it twice...

	E----------------------------------------------------|
	B----------------------------------------------------|
	G----------------------------------------------------|
	D----------------------------------------------2-----|
	A-------3---------------3-2-2------------------------|
	E-1-0-1-----------1-0-1--------------0---0---0---0---|

	E----------------------------------------------------|
	B----------------------------------------------------|
	G----------------------------------------------------|
	D----------------------------------------------------|
	A-------3---------------3-2-2------------------------|
	E-1-0-1-----------1-0-1------------------------------|

Here the drums go double time and the jam picks up...

	E-12--------10---------------------------------------------------------------|
	B------12-------------7b8b7b8b7b8b7b8b7b8b7b8b7b8b7b8b7b8b7b8b7b8b7b8--------|
	G-12----9---11---12---6b7b6b7b6b7b6b7b6b7b6b7b6b7b6b7b6b7b6b7b6b7b6b7--------|
	D----------------12----------------------------------------------------------|
	A----------------------------------------------------------------------------|
	E----------------------------------------------------------------------------|

	E-12--------10----------------------------------------------------------------------------|
	B------12-------------787---787---787---787---787---787---787---787---787---787---787---7\|
	G-12----9---11---12---676-9-676-9-676-9-676-9-676-9-676-9-676-9-676-9-676-9-676-9-676-9-6\|
	D----------------12-------9-----9-----9-----9-----9-----9-----9-----9-----9-----9-----9---|
	A-----------------------------------------------------------------------------------------|
	E-----------------------------------------------------------------------------------------|

Use a lot of palm muting here...

	E--0-0-0-0-0-0--0--0--0--0--0--0-0-0-0-0-0-0-0-0-0-0-0-0-0-0-0-0-0-0-0-0-|
	B-/7-7-7-8-8-10-10-12-12-10-10-8-8-787-3/5-5-5-5-5-5-131-0-0-0-0-0-0-0-0-|
	G------------------------------------------------------------------------|
	D------------------------------------------------------------------------|
	A------------------------------------------------------------------------|
	E------------------------------------------------------------------------|

	E--0-0-0-0-0-0--0--0--0--0--0--0-0-0-0-|
	B-/7-7-7-8-8-10-10-12-12-10-10-8-8-787-|
	G--------------------------------------|
	D--------------------------------------|
	A--------------------------------------|
	E--------------------------------------|

	E-12-10-8-----------------------------------------------------------|
	B-----------12---10---8---------------------------------------------|
	G-------------------------11---9---7--------------------------------|
	D--------------------------------------10-9-7-----------------------|
	A-----------------------------------------------10---9---7----------|
	E------------------------------------------------------------10---8-|

Play this 4 times...

	E---------------|
	B---------------|
	G---------------|
	D-----------9---|
	A---------------|
	E-7---7---7---7-|

Then this, the timing is a little tricky (and it's not quite done yet)...

	E-0-3-0---0-3-0---0-7-0---0-5-0---0-8-0-----0---0---0---0---0---0---0---0---0---0---|
	B-----------------------------------------------------------------------------------|
	G-----------------------------------------------------------------------------------|
	D-----------------------------------------------------------------------------------|
	A-----------------------------------------------------------------------------------|
	E-----------------------------------------------------------------------------------|
	|
	E-----------------7---------------8---------7-------10----7-8-------7---------------|
	B-8-------10----7-------8-10----8------10--------10--------------10-------8-10----7-|
	G-------9---------------------------------------------------------------------------|
	D-----------------------------------------------------------------------------------|
	A-----------------------------------------------------------------------------------|
	E-----------------------------------------------------------------------------------|


Here's the rest of what I have so far, hope to finish soon.

    E-15-14-12----14-12-------12-----------------------------|
    B----------15-------15-13----15-13-12-15-13-12-----------|
    G----------------------------------------------14--------|
    D--------------------------------------------------------|
    A--------------------------------------------------------|
    E--------------------------------------------------------|


	E-21--------19---------------------------------------|
	B------22--------19----------------------------------|
	G----------------------------------------------------|
	D----------------------------------------------------|
	A----------------------------------------------------|
	E----------------------------------------------------|

	When all preconceptions are lifted
	Growing is more for the gifted
	Dialing in my prescription
	Relying on old definition
	its never a word till its spoken here
	many interpret its still unclear
	this cant be hard as choosing it
	we’re all better off than accusing
            
Hard to play? Try these video lessons and learn fast. | Correct




comments powered by Disqus
↑ Back to top | Tablatures and chords are parodies/interpretations of the original songs. You may use it for private study, scholarship, research or language learning purposes only